ISO-10303-21;
HEADER;
FILE_DESCRIPTION((''),'2;1');
FILE_NAME('2027-XX-SM','2012-07-30T',('ryans'),('Bourns, Inc.'),
'PRO/ENGINEER BY PARAMETRIC TECHNOLOGY CORPORATION, 2010100',
'PRO/ENGINEER BY PARAMETRIC TECHNOLOGY CORPORATION, 2010100','');
FILE_SCHEMA(('CONFIG_CONTROL_DESIGN'));
ENDSEC;
DATA;
#1=DIRECTION('',(1.E0,0.E0,0.E0));
#2=VECTOR('',#1,7.1E-1);
#3=CARTESIAN_POINT('',(0.E0,-2.404E0,-3.96E0));
#4=LINE('',#3,#2);
#5=DIRECTION('',(0.E0,-1.E0,0.E0));
#6=VECTOR('',#5,4.808E0);
#7=CARTESIAN_POINT('',(7.1E-1,2.404E0,-3.96E0));
#8=LINE('',#7,#6);
#9=DIRECTION('',(0.E0,7.071067811866E-1,-7.071067811865E-1));
#10=VECTOR('',#9,2.200516303053E0);
#11=CARTESIAN_POINT('',(7.1E-1,-3.96E0,-2.404E0));
#12=LINE('',#11,#10);
#13=DIRECTION('',(0.E0,0.E0,1.E0));
#14=VECTOR('',#13,4.808E0);
#15=CARTESIAN_POINT('',(7.1E-1,-3.96E0,-2.404E0));
#16=LINE('',#15,#14);
#17=DIRECTION('',(0.E0,-7.071067811866E-1,-7.071067811865E-1));
#18=VECTOR('',#17,2.200516303053E0);
#19=CARTESIAN_POINT('',(7.1E-1,-2.404E0,3.96E0));
#20=LINE('',#19,#18);
#21=DIRECTION('',(0.E0,1.E0,0.E0));
#22=VECTOR('',#21,4.808E0);
#23=CARTESIAN_POINT('',(7.1E-1,-2.404E0,3.96E0));
#24=LINE('',#23,#22);
#25=DIRECTION('',(0.E0,-7.071067811866E-1,7.071067811865E-1));
#26=VECTOR('',#25,2.200516303053E0);
#27=CARTESIAN_POINT('',(7.1E-1,3.96E0,2.404E0));
#28=LINE('',#27,#26);
#29=DIRECTION('',(0.E0,0.E0,-1.E0));
#30=VECTOR('',#29,4.808E0);
#31=CARTESIAN_POINT('',(7.1E-1,3.96E0,2.404E0));
#32=LINE('',#31,#30);
#33=DIRECTION('',(0.E0,7.071067811866E-1,7.071067811865E-1));
#34=VECTOR('',#33,2.200516303053E0);
#35=CARTESIAN_POINT('',(7.1E-1,2.404E0,-3.96E0));
#36=LINE('',#35,#34);
#37=DIRECTION('',(1.E0,0.E0,0.E0));
#38=VECTOR('',#37,7.1E-1);
#39=CARTESIAN_POINT('',(0.E0,-3.96E0,-2.404E0));
#40=LINE('',#39,#38);
#41=DIRECTION('',(0.E0,7.071067811866E-1,7.071067811865E-1));
#42=VECTOR('',#41,2.200516303053E0);
#43=CARTESIAN_POINT('',(0.E0,2.404E0,-3.96E0));
#44=LINE('',#43,#42);
#45=DIRECTION('',(0.E0,0.E0,1.E0));
#46=VECTOR('',#45,4.808E0);
#47=CARTESIAN_POINT('',(0.E0,3.96E0,-2.404E0));
#48=LINE('',#47,#46);
#49=DIRECTION('',(0.E0,-7.071067811866E-1,7.071067811865E-1));
#50=VECTOR('',#49,2.200516303053E0);
#51=CARTESIAN_POINT('',(0.E0,3.96E0,2.404E0));
#52=LINE('',#51,#50);
#53=DIRECTION('',(0.E0,-1.E0,0.E0));
#54=VECTOR('',#53,4.808E0);
#55=CARTESIAN_POINT('',(0.E0,2.404E0,3.96E0));
#56=LINE('',#55,#54);
#57=DIRECTION('',(0.E0,-7.071067811866E-1,-7.071067811865E-1));
#58=VECTOR('',#57,2.200516303053E0);
#59=CARTESIAN_POINT('',(0.E0,-2.404E0,3.96E0));
#60=LINE('',#59,#58);
#61=DIRECTION('',(0.E0,0.E0,-1.E0));
#62=VECTOR('',#61,4.808E0);
#63=CARTESIAN_POINT('',(0.E0,-3.96E0,2.404E0));
#64=LINE('',#63,#62);
#65=DIRECTION('',(0.E0,7.071067811866E-1,-7.071067811865E-1));
#66=VECTOR('',#65,2.200516303053E0);
#67=CARTESIAN_POINT('',(0.E0,-3.96E0,-2.404E0));
#68=LINE('',#67,#66);
#69=DIRECTION('',(0.E0,1.E0,0.E0));
#70=VECTOR('',#69,4.808E0);
#71=CARTESIAN_POINT('',(0.E0,-2.404E0,-3.96E0));
#72=LINE('',#71,#70);
#73=DIRECTION('',(1.E0,0.E0,0.E0));
#74=VECTOR('',#73,7.1E-1);
#75=CARTESIAN_POINT('',(0.E0,2.404E0,-3.96E0));
#76=LINE('',#75,#74);
#77=DIRECTION('',(1.E0,0.E0,0.E0));
#78=VECTOR('',#77,7.1E-1);
#79=CARTESIAN_POINT('',(0.E0,3.96E0,-2.404E0));
#80=LINE('',#79,#78);
#81=DIRECTION('',(1.E0,0.E0,0.E0));
#82=VECTOR('',#81,7.1E-1);
#83=CARTESIAN_POINT('',(0.E0,3.96E0,2.404E0));
#84=LINE('',#83,#82);
#85=DIRECTION('',(1.E0,0.E0,0.E0));
#86=VECTOR('',#85,7.1E-1);
#87=CARTESIAN_POINT('',(0.E0,2.404E0,3.96E0));
#88=LINE('',#87,#86);
#89=DIRECTION('',(1.E0,0.E0,0.E0));
#90=VECTOR('',#89,7.1E-1);
#91=CARTESIAN_POINT('',(0.E0,-2.404E0,3.96E0));
#92=LINE('',#91,#90);
#93=DIRECTION('',(1.E0,0.E0,0.E0));
#94=VECTOR('',#93,7.1E-1);
#95=CARTESIAN_POINT('',(0.E0,-3.96E0,2.404E0));
#96=LINE('',#95,#94);
#97=CARTESIAN_POINT('',(0.E0,3.96E0,-2.404E0));
#98=CARTESIAN_POINT('',(0.E0,3.96E0,2.404E0));
#99=VERTEX_POINT('',#97);
#100=VERTEX_POINT('',#98);
#101=CARTESIAN_POINT('',(0.E0,2.404E0,3.96E0));
#102=CARTESIAN_POINT('',(0.E0,-2.404E0,3.96E0));
#103=VERTEX_POINT('',#101);
#104=VERTEX_POINT('',#102);
#105=CARTESIAN_POINT('',(0.E0,-3.96E0,2.404E0));
#106=CARTESIAN_POINT('',(0.E0,-3.96E0,-2.404E0));
#107=VERTEX_POINT('',#105);
#108=VERTEX_POINT('',#106);
#109=CARTESIAN_POINT('',(0.E0,-2.404E0,-3.96E0));
#110=CARTESIAN_POINT('',(0.E0,2.404E0,-3.96E0));
#111=VERTEX_POINT('',#109);
#112=VERTEX_POINT('',#110);
#113=CARTESIAN_POINT('',(7.1E-1,2.404E0,-3.96E0));
#114=CARTESIAN_POINT('',(7.1E-1,3.96E0,-2.404E0));
#115=VERTEX_POINT('',#113);
#116=VERTEX_POINT('',#114);
#117=CARTESIAN_POINT('',(7.1E-1,3.96E0,2.404E0));
#118=CARTESIAN_POINT('',(7.1E-1,2.404E0,3.96E0));
#119=VERTEX_POINT('',#117);
#120=VERTEX_POINT('',#118);
#121=CARTESIAN_POINT('',(7.1E-1,-2.404E0,3.96E0));
#122=CARTESIAN_POINT('',(7.1E-1,-3.96E0,2.404E0));
#123=VERTEX_POINT('',#121);
#124=VERTEX_POINT('',#122);
#125=CARTESIAN_POINT('',(7.1E-1,-3.96E0,-2.404E0));
#126=CARTESIAN_POINT('',(7.1E-1,-2.404E0,-3.96E0));
#127=VERTEX_POINT('',#125);
#128=VERTEX_POINT('',#126);
#129=CARTESIAN_POINT('',(0.E0,-2.404E0,-3.96E0));
#130=DIRECTION('',(0.E0,0.E0,-1.E0));
#131=DIRECTION('',(0.E0,1.E0,0.E0));
#132=AXIS2_PLACEMENT_3D('',#129,#130,#131);
#133=PLANE('',#132);
#135=ORIENTED_EDGE('',*,*,#134,.F.);
#137=ORIENTED_EDGE('',*,*,#136,.F.);
#139=ORIENTED_EDGE('',*,*,#138,.F.);
#141=ORIENTED_EDGE('',*,*,#140,.T.);
#142=EDGE_LOOP('',(#135,#137,#139,#141));
#143=FACE_OUTER_BOUND('',#142,.F.);
#145=CARTESIAN_POINT('',(7.1E-1,0.E0,0.E0));
#146=DIRECTION('',(1.E0,0.E0,0.E0));
#147=DIRECTION('',(0.E0,-1.E0,0.E0));
#148=AXIS2_PLACEMENT_3D('',#145,#146,#147);
#149=PLANE('',#148);
#150=ORIENTED_EDGE('',*,*,#134,.T.);
#152=ORIENTED_EDGE('',*,*,#151,.F.);
#154=ORIENTED_EDGE('',*,*,#153,.T.);
#156=ORIENTED_EDGE('',*,*,#155,.F.);
#158=ORIENTED_EDGE('',*,*,#157,.T.);
#160=ORIENTED_EDGE('',*,*,#159,.F.);
#162=ORIENTED_EDGE('',*,*,#161,.T.);
#164=ORIENTED_EDGE('',*,*,#163,.F.);
#165=EDGE_LOOP('',(#150,#152,#154,#156,#158,#160,#162,#164));
#166=FACE_OUTER_BOUND('',#165,.F.);
#168=CARTESIAN_POINT('',(0.E0,-3.96E0,-2.404E0));
#169=DIRECTION('',(0.E0,-7.071067811865E-1,-7.071067811866E-1));
#170=DIRECTION('',(0.E0,7.071067811866E-1,-7.071067811865E-1));
#171=AXIS2_PLACEMENT_3D('',#168,#169,#170);
#172=PLANE('',#171);
#174=ORIENTED_EDGE('',*,*,#173,.F.);
#176=ORIENTED_EDGE('',*,*,#175,.T.);
#177=ORIENTED_EDGE('',*,*,#151,.T.);
#178=ORIENTED_EDGE('',*,*,#140,.F.);
#179=EDGE_LOOP('',(#174,#176,#177,#178));
#180=FACE_OUTER_BOUND('',#179,.F.);
#182=CARTESIAN_POINT('',(0.E0,0.E0,0.E0));
#183=DIRECTION('',(1.E0,0.E0,0.E0));
#184=DIRECTION('',(0.E0,-1.E0,0.E0));
#185=AXIS2_PLACEMENT_3D('',#182,#183,#184);
#186=PLANE('',#185);
#188=ORIENTED_EDGE('',*,*,#187,.T.);
#190=ORIENTED_EDGE('',*,*,#189,.T.);
#192=ORIENTED_EDGE('',*,*,#191,.T.);
#194=ORIENTED_EDGE('',*,*,#193,.T.);
#196=ORIENTED_EDGE('',*,*,#195,.T.);
#198=ORIENTED_EDGE('',*,*,#197,.T.);
#199=ORIENTED_EDGE('',*,*,#173,.T.);
#200=ORIENTED_EDGE('',*,*,#138,.T.);
#201=EDGE_LOOP('',(#188,#190,#192,#194,#196,#198,#199,#200));
#202=FACE_OUTER_BOUND('',#201,.F.);
#204=CARTESIAN_POINT('',(0.E0,2.404E0,-3.96E0));
#205=DIRECTION('',(0.E0,7.071067811865E-1,-7.071067811866E-1));
#206=DIRECTION('',(0.E0,7.071067811866E-1,7.071067811865E-1));
#207=AXIS2_PLACEMENT_3D('',#204,#205,#206);
#208=PLANE('',#207);
#209=ORIENTED_EDGE('',*,*,#187,.F.);
#210=ORIENTED_EDGE('',*,*,#136,.T.);
#211=ORIENTED_EDGE('',*,*,#163,.T.);
#213=ORIENTED_EDGE('',*,*,#212,.F.);
#214=EDGE_LOOP('',(#209,#210,#211,#213));
#215=FACE_OUTER_BOUND('',#214,.F.);
#217=CARTESIAN_POINT('',(0.E0,3.96E0,-2.404E0));
#218=DIRECTION('',(0.E0,1.E0,0.E0));
#219=DIRECTION('',(0.E0,0.E0,1.E0));
#220=AXIS2_PLACEMENT_3D('',#217,#218,#219);
#221=PLANE('',#220);
#222=ORIENTED_EDGE('',*,*,#161,.F.);
#224=ORIENTED_EDGE('',*,*,#223,.F.);
#225=ORIENTED_EDGE('',*,*,#189,.F.);
#226=ORIENTED_EDGE('',*,*,#212,.T.);
#227=EDGE_LOOP('',(#222,#224,#225,#226));
#228=FACE_OUTER_BOUND('',#227,.F.);
#230=CARTESIAN_POINT('',(0.E0,3.96E0,2.404E0));
#231=DIRECTION('',(0.E0,7.071067811865E-1,7.071067811866E-1));
#232=DIRECTION('',(0.E0,-7.071067811866E-1,7.071067811865E-1));
#233=AXIS2_PLACEMENT_3D('',#230,#231,#232);
#234=PLANE('',#233);
#235=ORIENTED_EDGE('',*,*,#191,.F.);
#236=ORIENTED_EDGE('',*,*,#223,.T.);
#237=ORIENTED_EDGE('',*,*,#159,.T.);
#239=ORIENTED_EDGE('',*,*,#238,.F.);
#240=EDGE_LOOP('',(#235,#236,#237,#239));
#241=FACE_OUTER_BOUND('',#240,.F.);
#243=CARTESIAN_POINT('',(0.E0,2.404E0,3.96E0));
#244=DIRECTION('',(0.E0,0.E0,1.E0));
#245=DIRECTION('',(0.E0,-1.E0,0.E0));
#246=AXIS2_PLACEMENT_3D('',#243,#244,#245);
#247=PLANE('',#246);
#248=ORIENTED_EDGE('',*,*,#157,.F.);
#250=ORIENTED_EDGE('',*,*,#249,.F.);
#251=ORIENTED_EDGE('',*,*,#193,.F.);
#252=ORIENTED_EDGE('',*,*,#238,.T.);
#253=EDGE_LOOP('',(#248,#250,#251,#252));
#254=FACE_OUTER_BOUND('',#253,.F.);
#256=CARTESIAN_POINT('',(0.E0,-2.404E0,3.96E0));
#257=DIRECTION('',(0.E0,-7.071067811865E-1,7.071067811866E-1));
#258=DIRECTION('',(0.E0,-7.071067811866E-1,-7.071067811865E-1));
#259=AXIS2_PLACEMENT_3D('',#256,#257,#258);
#260=PLANE('',#259);
#261=ORIENTED_EDGE('',*,*,#195,.F.);
#262=ORIENTED_EDGE('',*,*,#249,.T.);
#263=ORIENTED_EDGE('',*,*,#155,.T.);
#265=ORIENTED_EDGE('',*,*,#264,.F.);
#266=EDGE_LOOP('',(#261,#262,#263,#265));
#267=FACE_OUTER_BOUND('',#266,.F.);
#269=CARTESIAN_POINT('',(0.E0,-3.96E0,2.404E0));
#270=DIRECTION('',(0.E0,-1.E0,0.E0));
#271=DIRECTION('',(0.E0,0.E0,-1.E0));
#272=AXIS2_PLACEMENT_3D('',#269,#270,#271);
#273=PLANE('',#272);
#274=ORIENTED_EDGE('',*,*,#153,.F.);
#275=ORIENTED_EDGE('',*,*,#175,.F.);
#276=ORIENTED_EDGE('',*,*,#197,.F.);
#277=ORIENTED_EDGE('',*,*,#264,.T.);
#278=EDGE_LOOP('',(#274,#275,#276,#277));
#279=FACE_OUTER_BOUND('',#278,.F.);
#281=CLOSED_SHELL('',(#144,#167,#181,#203,#216,#229,#242,#255,#268,#280));
#282=MANIFOLD_SOLID_BREP('',#281);
#283=CARTESIAN_POINT('',(6.42E0,0.E0,0.E0));
#284=DIRECTION('',(1.E0,0.E0,0.E0));
#285=DIRECTION('',(0.E0,-1.E0,0.E0));
#286=AXIS2_PLACEMENT_3D('',#283,#284,#285);
#288=CARTESIAN_POINT('',(6.42E0,0.E0,0.E0));
#289=DIRECTION('',(1.E0,0.E0,0.E0));
#290=DIRECTION('',(0.E0,1.E0,0.E0));
#291=AXIS2_PLACEMENT_3D('',#288,#289,#290);
#293=CARTESIAN_POINT('',(5.99E0,0.E0,0.E0));
#294=DIRECTION('',(-1.E0,0.E0,0.E0));
#295=DIRECTION('',(0.E0,1.E0,0.E0));
#296=AXIS2_PLACEMENT_3D('',#293,#294,#295);
#298=DIRECTION('',(1.E0,0.E0,0.E0));
#299=VECTOR('',#298,4.3E-1);
#300=CARTESIAN_POINT('',(5.99E0,-3.965E0,0.E0));
#301=LINE('',#300,#299);
#302=CARTESIAN_POINT('',(5.99E0,0.E0,0.E0));
#303=DIRECTION('',(-1.E0,0.E0,0.E0));
#304=DIRECTION('',(0.E0,-1.E0,0.E0));
#305=AXIS2_PLACEMENT_3D('',#302,#303,#304);
#307=DIRECTION('',(1.E0,0.E0,0.E0));
#308=VECTOR('',#307,4.3E-1);
#309=CARTESIAN_POINT('',(5.99E0,3.965E0,0.E0));
#310=LINE('',#309,#308);
#311=CARTESIAN_POINT('',(6.42E0,-3.965E0,0.E0));
#312=CARTESIAN_POINT('',(6.42E0,3.965E0,0.E0));
#313=VERTEX_POINT('',#311);
#314=VERTEX_POINT('',#312);
#315=CARTESIAN_POINT('',(5.99E0,3.965E0,0.E0));
#316=CARTESIAN_POINT('',(5.99E0,-3.965E0,0.E0));
#317=VERTEX_POINT('',#315);
#318=VERTEX_POINT('',#316);
#319=CARTESIAN_POINT('',(6.42E0,0.E0,0.E0));
#320=DIRECTION('',(1.E0,0.E0,0.E0));
#321=DIRECTION('',(0.E0,-1.E0,0.E0));
#322=AXIS2_PLACEMENT_3D('',#319,#320,#321);
#323=PLANE('',#322);
#325=ORIENTED_EDGE('',*,*,#324,.F.);
#327=ORIENTED_EDGE('',*,*,#326,.F.);
#328=EDGE_LOOP('',(#325,#327));
#329=FACE_OUTER_BOUND('',#328,.F.);
#331=CARTESIAN_POINT('',(7.1E-1,0.E0,0.E0));
#332=DIRECTION('',(1.E0,0.E0,0.E0));
#333=DIRECTION('',(0.E0,-1.E0,0.E0));
#334=AXIS2_PLACEMENT_3D('',#331,#332,#333);
#335=CYLINDRICAL_SURFACE('',#334,3.965E0);
#337=ORIENTED_EDGE('',*,*,#336,.T.);
#339=ORIENTED_EDGE('',*,*,#338,.T.);
#340=ORIENTED_EDGE('',*,*,#324,.T.);
#342=ORIENTED_EDGE('',*,*,#341,.F.);
#343=EDGE_LOOP('',(#337,#339,#340,#342));
#344=FACE_OUTER_BOUND('',#343,.F.);
#346=CARTESIAN_POINT('',(5.99E0,-4.758E0,3.965E0));
#347=DIRECTION('',(1.E0,0.E0,0.E0));
#348=DIRECTION('',(0.E0,0.E0,-1.E0));
#349=AXIS2_PLACEMENT_3D('',#346,#347,#348);
#350=PLANE('',#349);
#351=ORIENTED_EDGE('',*,*,#336,.F.);
#353=ORIENTED_EDGE('',*,*,#352,.F.);
#354=EDGE_LOOP('',(#351,#353));
#355=FACE_OUTER_BOUND('',#354,.F.);
#357=CARTESIAN_POINT('',(7.1E-1,0.E0,0.E0));
#358=DIRECTION('',(1.E0,0.E0,0.E0));
#359=DIRECTION('',(0.E0,-1.E0,0.E0));
#360=AXIS2_PLACEMENT_3D('',#357,#358,#359);
#361=CYLINDRICAL_SURFACE('',#360,3.965E0);
#362=ORIENTED_EDGE('',*,*,#352,.T.);
#363=ORIENTED_EDGE('',*,*,#341,.T.);
#364=ORIENTED_EDGE('',*,*,#326,.T.);
#365=ORIENTED_EDGE('',*,*,#338,.F.);
#366=EDGE_LOOP('',(#362,#363,#364,#365));
#367=FACE_OUTER_BOUND('',#366,.F.);
#369=CLOSED_SHELL('',(#330,#345,#356,#368));
#370=MANIFOLD_SOLID_BREP('',#369);
#371=CARTESIAN_POINT('',(5.94E0,0.E0,0.E0));
#372=DIRECTION('',(1.E0,0.E0,0.E0));
#373=DIRECTION('',(0.E0,-1.E0,0.E0));
#374=AXIS2_PLACEMENT_3D('',#371,#372,#373);
#376=CARTESIAN_POINT('',(7.6E-1,0.E0,0.E0));
#377=DIRECTION('',(-1.E0,0.E0,0.E0));
#378=DIRECTION('',(0.E0,1.E0,0.E0));
#379=AXIS2_PLACEMENT_3D('',#376,#377,#378);
#381=DIRECTION('',(1.E0,0.E0,0.E0));
#382=VECTOR('',#381,5.18E0);
#383=CARTESIAN_POINT('',(7.6E-1,-3.965E0,0.E0));
#384=LINE('',#383,#382);
#385=CARTESIAN_POINT('',(5.94E0,0.E0,0.E0));
#386=DIRECTION('',(1.E0,0.E0,0.E0));
#387=DIRECTION('',(0.E0,1.E0,0.E0));
#388=AXIS2_PLACEMENT_3D('',#385,#386,#387);
#390=CARTESIAN_POINT('',(7.6E-1,0.E0,0.E0));
#391=DIRECTION('',(-1.E0,0.E0,0.E0));
#392=DIRECTION('',(0.E0,-1.E0,0.E0));
#393=AXIS2_PLACEMENT_3D('',#390,#391,#392);
#395=DIRECTION('',(1.E0,0.E0,0.E0));
#396=VECTOR('',#395,5.18E0);
#397=CARTESIAN_POINT('',(7.6E-1,3.965E0,0.E0));
#398=LINE('',#397,#396);
#399=CARTESIAN_POINT('',(5.94E0,-3.965E0,0.E0));
#400=CARTESIAN_POINT('',(5.94E0,3.965E0,0.E0));
#401=VERTEX_POINT('',#399);
#402=VERTEX_POINT('',#400);
#403=CARTESIAN_POINT('',(7.6E-1,3.965E0,0.E0));
#404=CARTESIAN_POINT('',(7.6E-1,-3.965E0,0.E0));
#405=VERTEX_POINT('',#403);
#406=VERTEX_POINT('',#404);
#407=CARTESIAN_POINT('',(7.1E-1,0.E0,0.E0));
#408=DIRECTION('',(1.E0,0.E0,0.E0));
#409=DIRECTION('',(0.E0,-1.E0,0.E0));
#410=AXIS2_PLACEMENT_3D('',#407,#408,#409);
#411=CYLINDRICAL_SURFACE('',#410,3.965E0);
#413=ORIENTED_EDGE('',*,*,#412,.T.);
#415=ORIENTED_EDGE('',*,*,#414,.F.);
#417=ORIENTED_EDGE('',*,*,#416,.T.);
#419=ORIENTED_EDGE('',*,*,#418,.T.);
#420=EDGE_LOOP('',(#413,#415,#417,#419));
#421=FACE_OUTER_BOUND('',#420,.F.);
#423=CARTESIAN_POINT('',(5.94E0,-4.758E0,-3.965E0));
#424=DIRECTION('',(-1.E0,0.E0,0.E0));
#425=DIRECTION('',(0.E0,0.E0,1.E0));
#426=AXIS2_PLACEMENT_3D('',#423,#424,#425);
#427=PLANE('',#426);
#428=ORIENTED_EDGE('',*,*,#412,.F.);
#430=ORIENTED_EDGE('',*,*,#429,.F.);
#431=EDGE_LOOP('',(#428,#430));
#432=FACE_OUTER_BOUND('',#431,.F.);
#434=CARTESIAN_POINT('',(7.1E-1,0.E0,0.E0));
#435=DIRECTION('',(1.E0,0.E0,0.E0));
#436=DIRECTION('',(0.E0,-1.E0,0.E0));
#437=AXIS2_PLACEMENT_3D('',#434,#435,#436);
#438=CYLINDRICAL_SURFACE('',#437,3.965E0);
#439=ORIENTED_EDGE('',*,*,#429,.T.);
#440=ORIENTED_EDGE('',*,*,#418,.F.);
#442=ORIENTED_EDGE('',*,*,#441,.T.);
#443=ORIENTED_EDGE('',*,*,#414,.T.);
#444=EDGE_LOOP('',(#439,#440,#442,#443));
#445=FACE_OUTER_BOUND('',#444,.F.);
#447=CARTESIAN_POINT('',(7.6E-1,-4.758E0,3.965E0));
#448=DIRECTION('',(1.E0,0.E0,0.E0));
#449=DIRECTION('',(0.E0,0.E0,-1.E0));
#450=AXIS2_PLACEMENT_3D('',#447,#448,#449);
#451=PLANE('',#450);
#452=ORIENTED_EDGE('',*,*,#416,.F.);
#453=ORIENTED_EDGE('',*,*,#441,.F.);
#454=EDGE_LOOP('',(#452,#453));
#455=FACE_OUTER_BOUND('',#454,.F.);
#457=CLOSED_SHELL('',(#422,#433,#446,#456));
#458=MANIFOLD_SOLID_BREP('',#457);
#460=DIMENSIONAL_EXPONENTS(0.E0,0.E0,0.E0,0.E0,0.E0,0.E0,0.E0);
#462=PLANE_ANGLE_MEASURE_WITH_UNIT(PLANE_ANGLE_MEASURE(1.745329251994E-2),#461);
#463=(CONVERSION_BASED_UNIT('DEGREE',#462)NAMED_UNIT(*)PLANE_ANGLE_UNIT());
#465=UNCERTAINTY_MEASURE_WITH_UNIT(LENGTH_MEASURE(5.384690687682E-4),#459,
'closure',
'Maximum model space distance between geometric entities at asserted connectivities');
#468=APPLICATION_CONTEXT(
'CONFIGURATION CONTROLLED 3D DESIGNS OF MECHANICAL PARTS AND ASSEMBLIES');
#469=APPLICATION_PROTOCOL_DEFINITION('international standard',
'config_control_design',1994,#468);
#470=DESIGN_CONTEXT('',#468,'design');
#471=MECHANICAL_CONTEXT('',#468,'mechanical');
#472=PRODUCT('2027-XX-SM','2027-XX-SM','NOT SPECIFIED',(#471));
#473=PRODUCT_DEFINITION_FORMATION_WITH_SPECIFIED_SOURCE('1','LAST_VERSION',#472,
.MADE.);
#477=PRODUCT_CATEGORY('part','');
#478=PRODUCT_RELATED_PRODUCT_CATEGORY('detail','',(#472));
#479=PRODUCT_CATEGORY_RELATIONSHIP('','',#477,#478);
#480=SECURITY_CLASSIFICATION_LEVEL('unclassified');
#481=SECURITY_CLASSIFICATION('','',#480);
#482=CC_DESIGN_SECURITY_CLASSIFICATION(#481,(#473));
#483=APPROVAL_STATUS('approved');
#484=APPROVAL(#483,'');
#485=CC_DESIGN_APPROVAL(#484,(#481,#473,#474));
#486=CALENDAR_DATE(112,30,7);
#487=COORDINATED_UNIVERSAL_TIME_OFFSET(7,0,.BEHIND.);
#488=LOCAL_TIME(14,28,4.2E1,#487);
#489=DATE_AND_TIME(#486,#488);
#490=APPROVAL_DATE_TIME(#489,#484);
#491=DATE_TIME_ROLE('creation_date');
#492=CC_DESIGN_DATE_AND_TIME_ASSIGNMENT(#489,#491,(#474));
#493=DATE_TIME_ROLE('classification_date');
#494=CC_DESIGN_DATE_AND_TIME_ASSIGNMENT(#489,#493,(#481));
#495=PERSON('UNSPECIFIED','UNSPECIFIED',$,$,$,$);
#496=ORGANIZATION('UNSPECIFIED','UNSPECIFIED','UNSPECIFIED');
#497=PERSON_AND_ORGANIZATION(#495,#496);
#498=APPROVAL_ROLE('approver');
#499=APPROVAL_PERSON_ORGANIZATION(#497,#484,#498);
#500=PERSON_AND_ORGANIZATION_ROLE('creator');
#501=CC_DESIGN_PERSON_AND_ORGANIZATION_ASSIGNMENT(#497,#500,(#473,#474));
#502=PERSON_AND_ORGANIZATION_ROLE('design_supplier');
#503=CC_DESIGN_PERSON_AND_ORGANIZATION_ASSIGNMENT(#497,#502,(#473));
#504=PERSON_AND_ORGANIZATION_ROLE('classification_officer');
#505=CC_DESIGN_PERSON_AND_ORGANIZATION_ASSIGNMENT(#497,#504,(#481));
#506=PERSON_AND_ORGANIZATION_ROLE('design_owner');
#507=CC_DESIGN_PERSON_AND_ORGANIZATION_ASSIGNMENT(#497,#506,(#472));
#134=EDGE_CURVE('',#115,#128,#8,.T.);
#136=EDGE_CURVE('',#112,#115,#76,.T.);
#138=EDGE_CURVE('',#111,#112,#72,.T.);
#140=EDGE_CURVE('',#111,#128,#4,.T.);
#144=ADVANCED_FACE('',(#143),#133,.T.);
#151=EDGE_CURVE('',#127,#128,#12,.T.);
#153=EDGE_CURVE('',#127,#124,#16,.T.);
#155=EDGE_CURVE('',#123,#124,#20,.T.);
#157=EDGE_CURVE('',#123,#120,#24,.T.);
#159=EDGE_CURVE('',#119,#120,#28,.T.);
#161=EDGE_CURVE('',#119,#116,#32,.T.);
#163=EDGE_CURVE('',#115,#116,#36,.T.);
#167=ADVANCED_FACE('',(#166),#149,.T.);
#173=EDGE_CURVE('',#108,#111,#68,.T.);
#175=EDGE_CURVE('',#108,#127,#40,.T.);
#181=ADVANCED_FACE('',(#180),#172,.T.);
#187=EDGE_CURVE('',#112,#99,#44,.T.);
#189=EDGE_CURVE('',#99,#100,#48,.T.);
#191=EDGE_CURVE('',#100,#103,#52,.T.);
#193=EDGE_CURVE('',#103,#104,#56,.T.);
#195=EDGE_CURVE('',#104,#107,#60,.T.);
#197=EDGE_CURVE('',#107,#108,#64,.T.);
#203=ADVANCED_FACE('',(#202),#186,.F.);
#212=EDGE_CURVE('',#99,#116,#80,.T.);
#216=ADVANCED_FACE('',(#215),#208,.T.);
#223=EDGE_CURVE('',#100,#119,#84,.T.);
#229=ADVANCED_FACE('',(#228),#221,.T.);
#238=EDGE_CURVE('',#103,#120,#88,.T.);
#242=ADVANCED_FACE('',(#241),#234,.T.);
#249=EDGE_CURVE('',#104,#123,#92,.T.);
#255=ADVANCED_FACE('',(#254),#247,.T.);
#264=EDGE_CURVE('',#107,#124,#96,.T.);
#268=ADVANCED_FACE('',(#267),#260,.T.);
#280=ADVANCED_FACE('',(#279),#273,.T.);
#287=CIRCLE('',#286,3.965E0);
#292=CIRCLE('',#291,3.965E0);
#297=CIRCLE('',#296,3.965E0);
#306=CIRCLE('',#305,3.965E0);
#324=EDGE_CURVE('',#313,#314,#287,.T.);
#326=EDGE_CURVE('',#314,#313,#292,.T.);
#330=ADVANCED_FACE('',(#329),#323,.T.);
#336=EDGE_CURVE('',#317,#318,#297,.T.);
#338=EDGE_CURVE('',#318,#313,#301,.T.);
#341=EDGE_CURVE('',#317,#314,#310,.T.);
#345=ADVANCED_FACE('',(#344),#335,.T.);
#352=EDGE_CURVE('',#318,#317,#306,.T.);
#356=ADVANCED_FACE('',(#355),#350,.F.);
#368=ADVANCED_FACE('',(#367),#361,.T.);
#375=CIRCLE('',#374,3.965E0);
#380=CIRCLE('',#379,3.965E0);
#389=CIRCLE('',#388,3.965E0);
#394=CIRCLE('',#393,3.965E0);
#412=EDGE_CURVE('',#401,#402,#375,.T.);
#414=EDGE_CURVE('',#405,#402,#398,.T.);
#416=EDGE_CURVE('',#405,#406,#380,.T.);
#418=EDGE_CURVE('',#406,#401,#384,.T.);
#422=ADVANCED_FACE('',(#421),#411,.T.);
#429=EDGE_CURVE('',#402,#401,#389,.T.);
#433=ADVANCED_FACE('',(#432),#427,.F.);
#441=EDGE_CURVE('',#406,#405,#394,.T.);
#446=ADVANCED_FACE('',(#445),#438,.T.);
#456=ADVANCED_FACE('',(#455),#451,.F.);
#459=(LENGTH_UNIT()NAMED_UNIT(*)SI_UNIT(.MILLI.,.METRE.));
#461=(NAMED_UNIT(*)PLANE_ANGLE_UNIT()SI_UNIT($,.RADIAN.));
#464=(NAMED_UNIT(*)SI_UNIT($,.STERADIAN.)SOLID_ANGLE_UNIT());
#466=(GEOMETRIC_REPRESENTATION_CONTEXT(3)GLOBAL_UNCERTAINTY_ASSIGNED_CONTEXT((
#465))GLOBAL_UNIT_ASSIGNED_CONTEXT((#459,#463,#464))REPRESENTATION_CONTEXT
('ID1','3'));
#467=ADVANCED_BREP_SHAPE_REPRESENTATION('',(#282,#370,#458),#466);
#474=PRODUCT_DEFINITION('design','',#473,#470);
#475=PRODUCT_DEFINITION_SHAPE('','SHAPE FOR 2027-XX-SM.',#474);
#476=SHAPE_DEFINITION_REPRESENTATION(#475,#467);
ENDSEC;
END-ISO-10303-21;
