ISO-10303-21;
HEADER;
FILE_DESCRIPTION((''),'2;1');
FILE_NAME('2039-XX-SM','2012-08-03T',('ryans'),('Bourns, Inc.'),
'PRO/ENGINEER BY PARAMETRIC TECHNOLOGY CORPORATION, 2010100',
'PRO/ENGINEER BY PARAMETRIC TECHNOLOGY CORPORATION, 2010100','');
FILE_SCHEMA(('CONFIG_CONTROL_DESIGN'));
ENDSEC;
DATA;
#1=DIRECTION('',(0.E0,0.E0,-1.E0));
#2=VECTOR('',#1,9.E-2);
#3=CARTESIAN_POINT('',(-1.E0,0.E0,3.99E0));
#4=LINE('',#3,#2);
#5=CARTESIAN_POINT('',(0.E0,0.E0,3.99E0));
#6=DIRECTION('',(0.E0,0.E0,1.E0));
#7=DIRECTION('',(1.E0,0.E0,0.E0));
#8=AXIS2_PLACEMENT_3D('',#5,#6,#7);
#10=CARTESIAN_POINT('',(0.E0,0.E0,3.99E0));
#11=DIRECTION('',(0.E0,0.E0,1.E0));
#12=DIRECTION('',(-1.E0,0.E0,0.E0));
#13=AXIS2_PLACEMENT_3D('',#10,#11,#12);
#15=CARTESIAN_POINT('',(0.E0,0.E0,3.99E0));
#16=DIRECTION('',(0.E0,0.E0,1.E0));
#17=DIRECTION('',(1.E0,0.E0,0.E0));
#18=AXIS2_PLACEMENT_3D('',#15,#16,#17);
#20=DIRECTION('',(0.E0,0.E0,1.E0));
#21=VECTOR('',#20,3.59E0);
#22=CARTESIAN_POINT('',(2.4E0,0.E0,4.E-1));
#23=LINE('',#22,#21);
#24=CARTESIAN_POINT('',(0.E0,0.E0,3.99E0));
#25=DIRECTION('',(0.E0,0.E0,1.E0));
#26=DIRECTION('',(-1.E0,0.E0,0.E0));
#27=AXIS2_PLACEMENT_3D('',#24,#25,#26);
#29=DIRECTION('',(0.E0,0.E0,1.E0));
#30=VECTOR('',#29,3.59E0);
#31=CARTESIAN_POINT('',(-2.4E0,0.E0,4.E-1));
#32=LINE('',#31,#30);
#33=DIRECTION('',(-1.E0,0.E0,0.E0));
#34=VECTOR('',#33,3.776270170652E0);
#35=CARTESIAN_POINT('',(1.888135085326E0,2.5E0,4.E-1));
#36=LINE('',#35,#34);
#37=DIRECTION('',(-7.071067811865E-1,7.071067811865E-1,0.E0));
#38=VECTOR('',#37,8.654987001723E-1);
#39=CARTESIAN_POINT('',(2.500135085326E0,1.888E0,4.E-1));
#40=LINE('',#39,#38);
#41=DIRECTION('',(0.E0,1.E0,0.E0));
#42=VECTOR('',#41,3.776E0);
#43=CARTESIAN_POINT('',(2.500135085326E0,-1.888E0,4.E-1));
#44=LINE('',#43,#42);
#45=DIRECTION('',(7.071067811865E-1,7.071067811865E-1,0.E0));
#46=VECTOR('',#45,8.654987001723E-1);
#47=CARTESIAN_POINT('',(1.888135085326E0,-2.5E0,4.E-1));
#48=LINE('',#47,#46);
#49=DIRECTION('',(1.E0,0.E0,0.E0));
#50=VECTOR('',#49,3.776270170652E0);
#51=CARTESIAN_POINT('',(-1.888135085326E0,-2.5E0,4.E-1));
#52=LINE('',#51,#50);
#53=DIRECTION('',(7.071067811865E-1,-7.071067811865E-1,0.E0));
#54=VECTOR('',#53,8.654987001723E-1);
#55=CARTESIAN_POINT('',(-2.500135085326E0,-1.888E0,4.E-1));
#56=LINE('',#55,#54);
#57=DIRECTION('',(0.E0,-1.E0,0.E0));
#58=VECTOR('',#57,3.776E0);
#59=CARTESIAN_POINT('',(-2.500135085326E0,1.888E0,4.E-1));
#60=LINE('',#59,#58);
#61=DIRECTION('',(-7.071067811865E-1,-7.071067811865E-1,0.E0));
#62=VECTOR('',#61,8.654987001723E-1);
#63=CARTESIAN_POINT('',(-1.888135085326E0,2.5E0,4.E-1));
#64=LINE('',#63,#62);
#65=CARTESIAN_POINT('',(0.E0,0.E0,4.E-1));
#66=DIRECTION('',(0.E0,0.E0,1.E0));
#67=DIRECTION('',(1.E0,0.E0,0.E0));
#68=AXIS2_PLACEMENT_3D('',#65,#66,#67);
#70=CARTESIAN_POINT('',(0.E0,0.E0,4.E-1));
#71=DIRECTION('',(0.E0,0.E0,1.E0));
#72=DIRECTION('',(-1.E0,0.E0,0.E0));
#73=AXIS2_PLACEMENT_3D('',#70,#71,#72);
#75=DIRECTION('',(0.E0,0.E0,1.E0));
#76=VECTOR('',#75,4.E-1);
#77=CARTESIAN_POINT('',(1.888135085326E0,2.5E0,0.E0));
#78=LINE('',#77,#76);
#79=DIRECTION('',(-1.E0,0.E0,0.E0));
#80=VECTOR('',#79,3.776270170652E0);
#81=CARTESIAN_POINT('',(1.888135085326E0,2.5E0,0.E0));
#82=LINE('',#81,#80);
#83=DIRECTION('',(-7.071067811865E-1,-7.071067811865E-1,0.E0));
#84=VECTOR('',#83,8.654987001723E-1);
#85=CARTESIAN_POINT('',(-1.888135085326E0,2.5E0,0.E0));
#86=LINE('',#85,#84);
#87=DIRECTION('',(0.E0,-1.E0,0.E0));
#88=VECTOR('',#87,3.776E0);
#89=CARTESIAN_POINT('',(-2.500135085326E0,1.888E0,0.E0));
#90=LINE('',#89,#88);
#91=DIRECTION('',(7.071067811865E-1,-7.071067811865E-1,0.E0));
#92=VECTOR('',#91,8.654987001723E-1);
#93=CARTESIAN_POINT('',(-2.500135085326E0,-1.888E0,0.E0));
#94=LINE('',#93,#92);
#95=DIRECTION('',(1.E0,0.E0,0.E0));
#96=VECTOR('',#95,3.776270170652E0);
#97=CARTESIAN_POINT('',(-1.888135085326E0,-2.5E0,0.E0));
#98=LINE('',#97,#96);
#99=DIRECTION('',(7.071067811865E-1,7.071067811865E-1,0.E0));
#100=VECTOR('',#99,8.654987001723E-1);
#101=CARTESIAN_POINT('',(1.888135085326E0,-2.5E0,0.E0));
#102=LINE('',#101,#100);
#103=DIRECTION('',(0.E0,1.E0,0.E0));
#104=VECTOR('',#103,3.776E0);
#105=CARTESIAN_POINT('',(2.500135085326E0,-1.888E0,0.E0));
#106=LINE('',#105,#104);
#107=DIRECTION('',(-7.071067811865E-1,7.071067811865E-1,0.E0));
#108=VECTOR('',#107,8.654987001723E-1);
#109=CARTESIAN_POINT('',(2.500135085326E0,1.888E0,0.E0));
#110=LINE('',#109,#108);
#111=DIRECTION('',(0.E0,0.E0,1.E0));
#112=VECTOR('',#111,4.E-1);
#113=CARTESIAN_POINT('',(-1.888135085326E0,2.5E0,0.E0));
#114=LINE('',#113,#112);
#115=DIRECTION('',(0.E0,0.E0,1.E0));
#116=VECTOR('',#115,4.E-1);
#117=CARTESIAN_POINT('',(-2.500135085326E0,1.888E0,0.E0));
#118=LINE('',#117,#116);
#119=DIRECTION('',(0.E0,0.E0,1.E0));
#120=VECTOR('',#119,4.E-1);
#121=CARTESIAN_POINT('',(-2.500135085326E0,-1.888E0,0.E0));
#122=LINE('',#121,#120);
#123=DIRECTION('',(0.E0,0.E0,1.E0));
#124=VECTOR('',#123,4.E-1);
#125=CARTESIAN_POINT('',(-1.888135085326E0,-2.5E0,0.E0));
#126=LINE('',#125,#124);
#127=DIRECTION('',(0.E0,0.E0,1.E0));
#128=VECTOR('',#127,4.E-1);
#129=CARTESIAN_POINT('',(1.888135085326E0,-2.5E0,0.E0));
#130=LINE('',#129,#128);
#131=DIRECTION('',(0.E0,0.E0,1.E0));
#132=VECTOR('',#131,4.E-1);
#133=CARTESIAN_POINT('',(2.500135085326E0,-1.888E0,0.E0));
#134=LINE('',#133,#132);
#135=DIRECTION('',(0.E0,0.E0,1.E0));
#136=VECTOR('',#135,4.E-1);
#137=CARTESIAN_POINT('',(2.500135085326E0,1.888E0,0.E0));
#138=LINE('',#137,#136);
#139=DIRECTION('',(0.E0,0.E0,-1.E0));
#140=VECTOR('',#139,9.E-2);
#141=CARTESIAN_POINT('',(1.E0,0.E0,3.99E0));
#142=LINE('',#141,#140);
#143=CARTESIAN_POINT('',(0.E0,0.E0,3.9E0));
#144=DIRECTION('',(0.E0,0.E0,-1.E0));
#145=DIRECTION('',(-1.E0,0.E0,0.E0));
#146=AXIS2_PLACEMENT_3D('',#143,#144,#145);
#148=CARTESIAN_POINT('',(0.E0,0.E0,3.9E0));
#149=DIRECTION('',(0.E0,0.E0,-1.E0));
#150=DIRECTION('',(1.E0,0.E0,0.E0));
#151=AXIS2_PLACEMENT_3D('',#148,#149,#150);
#153=CARTESIAN_POINT('',(1.888135085326E0,2.5E0,0.E0));
#154=CARTESIAN_POINT('',(-1.888135085326E0,2.5E0,0.E0));
#155=VERTEX_POINT('',#153);
#156=VERTEX_POINT('',#154);
#157=CARTESIAN_POINT('',(-2.500135085326E0,1.888E0,0.E0));
#158=VERTEX_POINT('',#157);
#159=CARTESIAN_POINT('',(-2.500135085326E0,-1.888E0,0.E0));
#160=VERTEX_POINT('',#159);
#161=CARTESIAN_POINT('',(-1.888135085326E0,-2.5E0,0.E0));
#162=VERTEX_POINT('',#161);
#163=CARTESIAN_POINT('',(1.888135085326E0,-2.5E0,0.E0));
#164=VERTEX_POINT('',#163);
#165=CARTESIAN_POINT('',(2.500135085326E0,-1.888E0,0.E0));
#166=VERTEX_POINT('',#165);
#167=CARTESIAN_POINT('',(2.500135085326E0,1.888E0,0.E0));
#168=VERTEX_POINT('',#167);
#169=CARTESIAN_POINT('',(1.888135085326E0,2.5E0,4.E-1));
#170=CARTESIAN_POINT('',(-1.888135085326E0,2.5E0,4.E-1));
#171=VERTEX_POINT('',#169);
#172=VERTEX_POINT('',#170);
#173=CARTESIAN_POINT('',(-2.500135085326E0,1.888E0,4.E-1));
#174=VERTEX_POINT('',#173);
#175=CARTESIAN_POINT('',(-2.500135085326E0,-1.888E0,4.E-1));
#176=VERTEX_POINT('',#175);
#177=CARTESIAN_POINT('',(-1.888135085326E0,-2.5E0,4.E-1));
#178=VERTEX_POINT('',#177);
#179=CARTESIAN_POINT('',(1.888135085326E0,-2.5E0,4.E-1));
#180=VERTEX_POINT('',#179);
#181=CARTESIAN_POINT('',(2.500135085326E0,-1.888E0,4.E-1));
#182=VERTEX_POINT('',#181);
#183=CARTESIAN_POINT('',(2.500135085326E0,1.888E0,4.E-1));
#184=VERTEX_POINT('',#183);
#185=CARTESIAN_POINT('',(2.4E0,0.E0,4.E-1));
#186=CARTESIAN_POINT('',(-2.4E0,0.E0,4.E-1));
#187=VERTEX_POINT('',#185);
#188=VERTEX_POINT('',#186);
#189=CARTESIAN_POINT('',(2.4E0,0.E0,3.99E0));
#190=CARTESIAN_POINT('',(-2.4E0,0.E0,3.99E0));
#191=VERTEX_POINT('',#189);
#192=VERTEX_POINT('',#190);
#193=CARTESIAN_POINT('',(-1.E0,0.E0,3.9E0));
#194=CARTESIAN_POINT('',(1.E0,0.E0,3.9E0));
#195=VERTEX_POINT('',#193);
#196=VERTEX_POINT('',#194);
#197=CARTESIAN_POINT('',(1.E0,0.E0,3.99E0));
#198=CARTESIAN_POINT('',(-1.E0,0.E0,3.99E0));
#199=VERTEX_POINT('',#197);
#200=VERTEX_POINT('',#198);
#201=CARTESIAN_POINT('',(0.E0,0.E0,4.4E0));
#202=DIRECTION('',(0.E0,0.E0,1.E0));
#203=DIRECTION('',(1.E0,0.E0,0.E0));
#204=AXIS2_PLACEMENT_3D('',#201,#202,#203);
#205=CYLINDRICAL_SURFACE('',#204,1.E0);
#207=ORIENTED_EDGE('',*,*,#206,.F.);
#209=ORIENTED_EDGE('',*,*,#208,.T.);
#211=ORIENTED_EDGE('',*,*,#210,.F.);
#213=ORIENTED_EDGE('',*,*,#212,.F.);
#214=EDGE_LOOP('',(#207,#209,#211,#213));
#215=FACE_OUTER_BOUND('',#214,.F.);
#217=CARTESIAN_POINT('',(-3.000162102391E0,-2.4E0,3.99E0));
#218=DIRECTION('',(0.E0,0.E0,-1.E0));
#219=DIRECTION('',(0.E0,1.E0,0.E0));
#220=AXIS2_PLACEMENT_3D('',#217,#218,#219);
#221=PLANE('',#220);
#223=ORIENTED_EDGE('',*,*,#222,.F.);
#225=ORIENTED_EDGE('',*,*,#224,.F.);
#226=EDGE_LOOP('',(#223,#225));
#227=FACE_OUTER_BOUND('',#226,.F.);
#229=ORIENTED_EDGE('',*,*,#228,.T.);
#230=ORIENTED_EDGE('',*,*,#206,.T.);
#231=EDGE_LOOP('',(#229,#230));
#232=FACE_BOUND('',#231,.F.);
#234=CARTESIAN_POINT('',(0.E0,0.E0,0.E0));
#235=DIRECTION('',(0.E0,0.E0,1.E0));
#236=DIRECTION('',(1.E0,0.E0,0.E0));
#237=AXIS2_PLACEMENT_3D('',#234,#235,#236);
#238=CYLINDRICAL_SURFACE('',#237,2.4E0);
#239=ORIENTED_EDGE('',*,*,#222,.T.);
#241=ORIENTED_EDGE('',*,*,#240,.F.);
#243=ORIENTED_EDGE('',*,*,#242,.F.);
#245=ORIENTED_EDGE('',*,*,#244,.T.);
#246=EDGE_LOOP('',(#239,#241,#243,#245));
#247=FACE_OUTER_BOUND('',#246,.F.);
#249=CARTESIAN_POINT('',(0.E0,0.E0,0.E0));
#250=DIRECTION('',(0.E0,0.E0,1.E0));
#251=DIRECTION('',(1.E0,0.E0,0.E0));
#252=AXIS2_PLACEMENT_3D('',#249,#250,#251);
#253=CYLINDRICAL_SURFACE('',#252,2.4E0);
#254=ORIENTED_EDGE('',*,*,#224,.T.);
#255=ORIENTED_EDGE('',*,*,#244,.F.);
#257=ORIENTED_EDGE('',*,*,#256,.F.);
#258=ORIENTED_EDGE('',*,*,#240,.T.);
#259=EDGE_LOOP('',(#254,#255,#257,#258));
#260=FACE_OUTER_BOUND('',#259,.F.);
#262=CARTESIAN_POINT('',(0.E0,0.E0,4.E-1));
#263=DIRECTION('',(0.E0,0.E0,1.E0));
#264=DIRECTION('',(1.E0,0.E0,0.E0));
#265=AXIS2_PLACEMENT_3D('',#262,#263,#264);
#266=PLANE('',#265);
#268=ORIENTED_EDGE('',*,*,#267,.F.);
#270=ORIENTED_EDGE('',*,*,#269,.F.);
#272=ORIENTED_EDGE('',*,*,#271,.F.);
#274=ORIENTED_EDGE('',*,*,#273,.F.);
#276=ORIENTED_EDGE('',*,*,#275,.F.);
#278=ORIENTED_EDGE('',*,*,#277,.F.);
#280=ORIENTED_EDGE('',*,*,#279,.F.);
#282=ORIENTED_EDGE('',*,*,#281,.F.);
#283=EDGE_LOOP('',(#268,#270,#272,#274,#276,#278,#280,#282));
#284=FACE_OUTER_BOUND('',#283,.F.);
#285=ORIENTED_EDGE('',*,*,#242,.T.);
#286=ORIENTED_EDGE('',*,*,#256,.T.);
#287=EDGE_LOOP('',(#285,#286));
#288=FACE_BOUND('',#287,.F.);
#290=CARTESIAN_POINT('',(1.888135085326E0,2.5E0,0.E0));
#291=DIRECTION('',(0.E0,1.E0,0.E0));
#292=DIRECTION('',(-1.E0,0.E0,0.E0));
#293=AXIS2_PLACEMENT_3D('',#290,#291,#292);
#294=PLANE('',#293);
#296=ORIENTED_EDGE('',*,*,#295,.F.);
#298=ORIENTED_EDGE('',*,*,#297,.T.);
#299=ORIENTED_EDGE('',*,*,#267,.T.);
#301=ORIENTED_EDGE('',*,*,#300,.F.);
#302=EDGE_LOOP('',(#296,#298,#299,#301));
#303=FACE_OUTER_BOUND('',#302,.F.);
#305=CARTESIAN_POINT('',(0.E0,0.E0,0.E0));
#306=DIRECTION('',(0.E0,0.E0,1.E0));
#307=DIRECTION('',(1.E0,0.E0,0.E0));
#308=AXIS2_PLACEMENT_3D('',#305,#306,#307);
#309=PLANE('',#308);
#310=ORIENTED_EDGE('',*,*,#295,.T.);
#312=ORIENTED_EDGE('',*,*,#311,.T.);
#314=ORIENTED_EDGE('',*,*,#313,.T.);
#316=ORIENTED_EDGE('',*,*,#315,.T.);
#318=ORIENTED_EDGE('',*,*,#317,.T.);
#320=ORIENTED_EDGE('',*,*,#319,.T.);
#322=ORIENTED_EDGE('',*,*,#321,.T.);
#324=ORIENTED_EDGE('',*,*,#323,.T.);
#325=EDGE_LOOP('',(#310,#312,#314,#316,#318,#320,#322,#324));
#326=FACE_OUTER_BOUND('',#325,.F.);
#328=CARTESIAN_POINT('',(-1.888135085326E0,2.5E0,0.E0));
#329=DIRECTION('',(-7.071067811865E-1,7.071067811865E-1,0.E0));
#330=DIRECTION('',(-7.071067811865E-1,-7.071067811865E-1,0.E0));
#331=AXIS2_PLACEMENT_3D('',#328,#329,#330);
#332=PLANE('',#331);
#333=ORIENTED_EDGE('',*,*,#311,.F.);
#334=ORIENTED_EDGE('',*,*,#300,.T.);
#335=ORIENTED_EDGE('',*,*,#281,.T.);
#337=ORIENTED_EDGE('',*,*,#336,.F.);
#338=EDGE_LOOP('',(#333,#334,#335,#337));
#339=FACE_OUTER_BOUND('',#338,.F.);
#341=CARTESIAN_POINT('',(-2.500135085326E0,1.888E0,0.E0));
#342=DIRECTION('',(-1.E0,0.E0,0.E0));
#343=DIRECTION('',(0.E0,-1.E0,0.E0));
#344=AXIS2_PLACEMENT_3D('',#341,#342,#343);
#345=PLANE('',#344);
#346=ORIENTED_EDGE('',*,*,#313,.F.);
#347=ORIENTED_EDGE('',*,*,#336,.T.);
#348=ORIENTED_EDGE('',*,*,#279,.T.);
#350=ORIENTED_EDGE('',*,*,#349,.F.);
#351=EDGE_LOOP('',(#346,#347,#348,#350));
#352=FACE_OUTER_BOUND('',#351,.F.);
#354=CARTESIAN_POINT('',(-2.500135085326E0,-1.888E0,0.E0));
#355=DIRECTION('',(-7.071067811865E-1,-7.071067811865E-1,0.E0));
#356=DIRECTION('',(7.071067811865E-1,-7.071067811865E-1,0.E0));
#357=AXIS2_PLACEMENT_3D('',#354,#355,#356);
#358=PLANE('',#357);
#359=ORIENTED_EDGE('',*,*,#315,.F.);
#360=ORIENTED_EDGE('',*,*,#349,.T.);
#361=ORIENTED_EDGE('',*,*,#277,.T.);
#363=ORIENTED_EDGE('',*,*,#362,.F.);
#364=EDGE_LOOP('',(#359,#360,#361,#363));
#365=FACE_OUTER_BOUND('',#364,.F.);
#367=CARTESIAN_POINT('',(-1.888135085326E0,-2.5E0,0.E0));
#368=DIRECTION('',(0.E0,-1.E0,0.E0));
#369=DIRECTION('',(1.E0,0.E0,0.E0));
#370=AXIS2_PLACEMENT_3D('',#367,#368,#369);
#371=PLANE('',#370);
#372=ORIENTED_EDGE('',*,*,#317,.F.);
#373=ORIENTED_EDGE('',*,*,#362,.T.);
#374=ORIENTED_EDGE('',*,*,#275,.T.);
#376=ORIENTED_EDGE('',*,*,#375,.F.);
#377=EDGE_LOOP('',(#372,#373,#374,#376));
#378=FACE_OUTER_BOUND('',#377,.F.);
#380=CARTESIAN_POINT('',(1.888135085326E0,-2.5E0,0.E0));
#381=DIRECTION('',(7.071067811865E-1,-7.071067811865E-1,0.E0));
#382=DIRECTION('',(7.071067811865E-1,7.071067811865E-1,0.E0));
#383=AXIS2_PLACEMENT_3D('',#380,#381,#382);
#384=PLANE('',#383);
#385=ORIENTED_EDGE('',*,*,#319,.F.);
#386=ORIENTED_EDGE('',*,*,#375,.T.);
#387=ORIENTED_EDGE('',*,*,#273,.T.);
#389=ORIENTED_EDGE('',*,*,#388,.F.);
#390=EDGE_LOOP('',(#385,#386,#387,#389));
#391=FACE_OUTER_BOUND('',#390,.F.);
#393=CARTESIAN_POINT('',(2.500135085326E0,-1.888E0,0.E0));
#394=DIRECTION('',(1.E0,0.E0,0.E0));
#395=DIRECTION('',(0.E0,1.E0,0.E0));
#396=AXIS2_PLACEMENT_3D('',#393,#394,#395);
#397=PLANE('',#396);
#398=ORIENTED_EDGE('',*,*,#321,.F.);
#399=ORIENTED_EDGE('',*,*,#388,.T.);
#400=ORIENTED_EDGE('',*,*,#271,.T.);
#402=ORIENTED_EDGE('',*,*,#401,.F.);
#403=EDGE_LOOP('',(#398,#399,#400,#402));
#404=FACE_OUTER_BOUND('',#403,.F.);
#406=CARTESIAN_POINT('',(2.500135085326E0,1.888E0,0.E0));
#407=DIRECTION('',(7.071067811865E-1,7.071067811865E-1,0.E0));
#408=DIRECTION('',(-7.071067811865E-1,7.071067811865E-1,0.E0));
#409=AXIS2_PLACEMENT_3D('',#406,#407,#408);
#410=PLANE('',#409);
#411=ORIENTED_EDGE('',*,*,#323,.F.);
#412=ORIENTED_EDGE('',*,*,#401,.T.);
#413=ORIENTED_EDGE('',*,*,#269,.T.);
#414=ORIENTED_EDGE('',*,*,#297,.F.);
#415=EDGE_LOOP('',(#411,#412,#413,#414));
#416=FACE_OUTER_BOUND('',#415,.F.);
#418=CARTESIAN_POINT('',(0.E0,0.E0,4.4E0));
#419=DIRECTION('',(0.E0,0.E0,1.E0));
#420=DIRECTION('',(1.E0,0.E0,0.E0));
#421=AXIS2_PLACEMENT_3D('',#418,#419,#420);
#422=CYLINDRICAL_SURFACE('',#421,1.E0);
#423=ORIENTED_EDGE('',*,*,#228,.F.);
#424=ORIENTED_EDGE('',*,*,#212,.T.);
#426=ORIENTED_EDGE('',*,*,#425,.F.);
#427=ORIENTED_EDGE('',*,*,#208,.F.);
#428=EDGE_LOOP('',(#423,#424,#426,#427));
#429=FACE_OUTER_BOUND('',#428,.F.);
#431=CARTESIAN_POINT('',(0.E0,0.E0,3.9E0));
#432=DIRECTION('',(0.E0,0.E0,1.E0));
#433=DIRECTION('',(1.E0,0.E0,0.E0));
#434=AXIS2_PLACEMENT_3D('',#431,#432,#433);
#435=PLANE('',#434);
#436=ORIENTED_EDGE('',*,*,#425,.T.);
#437=ORIENTED_EDGE('',*,*,#210,.T.);
#438=EDGE_LOOP('',(#436,#437));
#439=FACE_OUTER_BOUND('',#438,.F.);
#441=CLOSED_SHELL('',(#216,#233,#248,#261,#289,#304,#327,#340,#353,#366,#379,
#392,#405,#417,#430,#440));
#442=MANIFOLD_SOLID_BREP('',#441);
#443=CARTESIAN_POINT('',(0.E0,0.E0,4.4E0));
#444=DIRECTION('',(0.E0,0.E0,1.E0));
#445=DIRECTION('',(1.E0,0.E0,0.E0));
#446=AXIS2_PLACEMENT_3D('',#443,#444,#445);
#448=CARTESIAN_POINT('',(0.E0,0.E0,4.4E0));
#449=DIRECTION('',(0.E0,0.E0,1.E0));
#450=DIRECTION('',(-1.E0,0.E0,0.E0));
#451=AXIS2_PLACEMENT_3D('',#448,#449,#450);
#453=CARTESIAN_POINT('',(0.E0,0.E0,4.4E0));
#454=DIRECTION('',(0.E0,0.E0,1.E0));
#455=DIRECTION('',(1.E0,0.E0,0.E0));
#456=AXIS2_PLACEMENT_3D('',#453,#454,#455);
#458=CARTESIAN_POINT('',(0.E0,0.E0,4.4E0));
#459=DIRECTION('',(0.E0,0.E0,1.E0));
#460=DIRECTION('',(-1.E0,0.E0,0.E0));
#461=AXIS2_PLACEMENT_3D('',#458,#459,#460);
#463=CARTESIAN_POINT('',(0.E0,0.E0,4.E0));
#464=DIRECTION('',(0.E0,0.E0,-1.E0));
#465=DIRECTION('',(-1.E0,0.E0,0.E0));
#466=AXIS2_PLACEMENT_3D('',#463,#464,#465);
#468=DIRECTION('',(0.E0,0.E0,1.E0));
#469=VECTOR('',#468,4.E-1);
#470=CARTESIAN_POINT('',(2.4E0,0.E0,4.E0));
#471=LINE('',#470,#469);
#472=CARTESIAN_POINT('',(0.E0,0.E0,4.E0));
#473=DIRECTION('',(0.E0,0.E0,1.E0));
#474=DIRECTION('',(1.E0,0.E0,0.E0));
#475=AXIS2_PLACEMENT_3D('',#472,#473,#474);
#477=CARTESIAN_POINT('',(0.E0,0.E0,4.E0));
#478=DIRECTION('',(0.E0,0.E0,1.E0));
#479=DIRECTION('',(-1.E0,0.E0,0.E0));
#480=AXIS2_PLACEMENT_3D('',#477,#478,#479);
#482=CARTESIAN_POINT('',(0.E0,0.E0,4.E0));
#483=DIRECTION('',(0.E0,0.E0,-1.E0));
#484=DIRECTION('',(1.E0,0.E0,0.E0));
#485=AXIS2_PLACEMENT_3D('',#482,#483,#484);
#487=DIRECTION('',(0.E0,0.E0,1.E0));
#488=VECTOR('',#487,4.E-1);
#489=CARTESIAN_POINT('',(-2.4E0,0.E0,4.E0));
#490=LINE('',#489,#488);
#491=DIRECTION('',(0.E0,0.E0,-1.E0));
#492=VECTOR('',#491,4.E-1);
#493=CARTESIAN_POINT('',(1.E0,0.E0,4.4E0));
#494=LINE('',#493,#492);
#495=DIRECTION('',(0.E0,0.E0,-1.E0));
#496=VECTOR('',#495,4.E-1);
#497=CARTESIAN_POINT('',(-1.E0,0.E0,4.4E0));
#498=LINE('',#497,#496);
#499=CARTESIAN_POINT('',(2.4E0,0.E0,4.4E0));
#500=CARTESIAN_POINT('',(-2.4E0,0.E0,4.4E0));
#501=VERTEX_POINT('',#499);
#502=VERTEX_POINT('',#500);
#503=CARTESIAN_POINT('',(-2.4E0,0.E0,4.E0));
#504=CARTESIAN_POINT('',(2.4E0,0.E0,4.E0));
#505=VERTEX_POINT('',#503);
#506=VERTEX_POINT('',#504);
#507=CARTESIAN_POINT('',(1.E0,0.E0,4.4E0));
#508=CARTESIAN_POINT('',(-1.E0,0.E0,4.4E0));
#509=VERTEX_POINT('',#507);
#510=VERTEX_POINT('',#508);
#511=CARTESIAN_POINT('',(1.E0,0.E0,4.E0));
#512=CARTESIAN_POINT('',(-1.E0,0.E0,4.E0));
#513=VERTEX_POINT('',#511);
#514=VERTEX_POINT('',#512);
#515=CARTESIAN_POINT('',(0.E0,0.E0,4.4E0));
#516=DIRECTION('',(0.E0,0.E0,1.E0));
#517=DIRECTION('',(1.E0,0.E0,0.E0));
#518=AXIS2_PLACEMENT_3D('',#515,#516,#517);
#519=PLANE('',#518);
#521=ORIENTED_EDGE('',*,*,#520,.F.);
#523=ORIENTED_EDGE('',*,*,#522,.F.);
#524=EDGE_LOOP('',(#521,#523));
#525=FACE_OUTER_BOUND('',#524,.F.);
#527=ORIENTED_EDGE('',*,*,#526,.T.);
#529=ORIENTED_EDGE('',*,*,#528,.T.);
#530=EDGE_LOOP('',(#527,#529));
#531=FACE_BOUND('',#530,.F.);
#533=CARTESIAN_POINT('',(0.E0,0.E0,0.E0));
#534=DIRECTION('',(0.E0,0.E0,1.E0));
#535=DIRECTION('',(1.E0,0.E0,0.E0));
#536=AXIS2_PLACEMENT_3D('',#533,#534,#535);
#537=CYLINDRICAL_SURFACE('',#536,2.4E0);
#539=ORIENTED_EDGE('',*,*,#538,.T.);
#541=ORIENTED_EDGE('',*,*,#540,.T.);
#542=ORIENTED_EDGE('',*,*,#520,.T.);
#544=ORIENTED_EDGE('',*,*,#543,.F.);
#545=EDGE_LOOP('',(#539,#541,#542,#544));
#546=FACE_OUTER_BOUND('',#545,.F.);
#548=CARTESIAN_POINT('',(-3.000162102391E0,2.4E0,4.E0));
#549=DIRECTION('',(0.E0,0.E0,1.E0));
#550=DIRECTION('',(0.E0,-1.E0,0.E0));
#551=AXIS2_PLACEMENT_3D('',#548,#549,#550);
#552=PLANE('',#551);
#553=ORIENTED_EDGE('',*,*,#538,.F.);
#555=ORIENTED_EDGE('',*,*,#554,.F.);
#556=EDGE_LOOP('',(#553,#555));
#557=FACE_OUTER_BOUND('',#556,.F.);
#559=ORIENTED_EDGE('',*,*,#558,.F.);
#561=ORIENTED_EDGE('',*,*,#560,.F.);
#562=EDGE_LOOP('',(#559,#561));
#563=FACE_BOUND('',#562,.F.);
#565=CARTESIAN_POINT('',(0.E0,0.E0,0.E0));
#566=DIRECTION('',(0.E0,0.E0,1.E0));
#567=DIRECTION('',(1.E0,0.E0,0.E0));
#568=AXIS2_PLACEMENT_3D('',#565,#566,#567);
#569=CYLINDRICAL_SURFACE('',#568,2.4E0);
#570=ORIENTED_EDGE('',*,*,#554,.T.);
#571=ORIENTED_EDGE('',*,*,#543,.T.);
#572=ORIENTED_EDGE('',*,*,#522,.T.);
#573=ORIENTED_EDGE('',*,*,#540,.F.);
#574=EDGE_LOOP('',(#570,#571,#572,#573));
#575=FACE_OUTER_BOUND('',#574,.F.);
#577=CARTESIAN_POINT('',(0.E0,0.E0,4.4E0));
#578=DIRECTION('',(0.E0,0.E0,1.E0));
#579=DIRECTION('',(1.E0,0.E0,0.E0));
#580=AXIS2_PLACEMENT_3D('',#577,#578,#579);
#581=CYLINDRICAL_SURFACE('',#580,1.E0);
#582=ORIENTED_EDGE('',*,*,#526,.F.);
#584=ORIENTED_EDGE('',*,*,#583,.T.);
#585=ORIENTED_EDGE('',*,*,#558,.T.);
#587=ORIENTED_EDGE('',*,*,#586,.F.);
#588=EDGE_LOOP('',(#582,#584,#585,#587));
#589=FACE_OUTER_BOUND('',#588,.F.);
#591=CARTESIAN_POINT('',(0.E0,0.E0,4.4E0));
#592=DIRECTION('',(0.E0,0.E0,1.E0));
#593=DIRECTION('',(1.E0,0.E0,0.E0));
#594=AXIS2_PLACEMENT_3D('',#591,#592,#593);
#595=CYLINDRICAL_SURFACE('',#594,1.E0);
#596=ORIENTED_EDGE('',*,*,#528,.F.);
#597=ORIENTED_EDGE('',*,*,#586,.T.);
#598=ORIENTED_EDGE('',*,*,#560,.T.);
#599=ORIENTED_EDGE('',*,*,#583,.F.);
#600=EDGE_LOOP('',(#596,#597,#598,#599));
#601=FACE_OUTER_BOUND('',#600,.F.);
#603=CLOSED_SHELL('',(#532,#547,#564,#576,#590,#602));
#604=MANIFOLD_SOLID_BREP('',#603);
#606=DIMENSIONAL_EXPONENTS(0.E0,0.E0,0.E0,0.E0,0.E0,0.E0,0.E0);
#608=PLANE_ANGLE_MEASURE_WITH_UNIT(PLANE_ANGLE_MEASURE(1.745329251994E-2),#607);
#609=(CONVERSION_BASED_UNIT('DEGREE',#608)NAMED_UNIT(*)PLANE_ANGLE_UNIT());
#611=UNCERTAINTY_MEASURE_WITH_UNIT(LENGTH_MEASURE(3.470039246755E-4),#605,
'closure',
'Maximum model space distance between geometric entities at asserted connectivities');
#614=APPLICATION_CONTEXT(
'CONFIGURATION CONTROLLED 3D DESIGNS OF MECHANICAL PARTS AND ASSEMBLIES');
#615=APPLICATION_PROTOCOL_DEFINITION('international standard',
'config_control_design',1994,#614);
#616=DESIGN_CONTEXT('',#614,'design');
#617=MECHANICAL_CONTEXT('',#614,'mechanical');
#618=PRODUCT('2039-XX-SM','2039-XX-SM','NOT SPECIFIED',(#617));
#619=PRODUCT_DEFINITION_FORMATION_WITH_SPECIFIED_SOURCE('3','LAST_VERSION',#618,
.MADE.);
#623=PRODUCT_CATEGORY('part','');
#624=PRODUCT_RELATED_PRODUCT_CATEGORY('detail','',(#618));
#625=PRODUCT_CATEGORY_RELATIONSHIP('','',#623,#624);
#626=SECURITY_CLASSIFICATION_LEVEL('unclassified');
#627=SECURITY_CLASSIFICATION('','',#626);
#628=CC_DESIGN_SECURITY_CLASSIFICATION(#627,(#619));
#629=APPROVAL_STATUS('approved');
#630=APPROVAL(#629,'');
#631=CC_DESIGN_APPROVAL(#630,(#627,#619,#620));
#632=CALENDAR_DATE(112,3,8);
#633=COORDINATED_UNIVERSAL_TIME_OFFSET(7,0,.BEHIND.);
#634=LOCAL_TIME(11,17,2.1E1,#633);
#635=DATE_AND_TIME(#632,#634);
#636=APPROVAL_DATE_TIME(#635,#630);
#637=DATE_TIME_ROLE('creation_date');
#638=CC_DESIGN_DATE_AND_TIME_ASSIGNMENT(#635,#637,(#620));
#639=DATE_TIME_ROLE('classification_date');
#640=CC_DESIGN_DATE_AND_TIME_ASSIGNMENT(#635,#639,(#627));
#641=PERSON('UNSPECIFIED','UNSPECIFIED',$,$,$,$);
#642=ORGANIZATION('UNSPECIFIED','UNSPECIFIED','UNSPECIFIED');
#643=PERSON_AND_ORGANIZATION(#641,#642);
#644=APPROVAL_ROLE('approver');
#645=APPROVAL_PERSON_ORGANIZATION(#643,#630,#644);
#646=PERSON_AND_ORGANIZATION_ROLE('creator');
#647=CC_DESIGN_PERSON_AND_ORGANIZATION_ASSIGNMENT(#643,#646,(#619,#620));
#648=PERSON_AND_ORGANIZATION_ROLE('design_supplier');
#649=CC_DESIGN_PERSON_AND_ORGANIZATION_ASSIGNMENT(#643,#648,(#619));
#650=PERSON_AND_ORGANIZATION_ROLE('classification_officer');
#651=CC_DESIGN_PERSON_AND_ORGANIZATION_ASSIGNMENT(#643,#650,(#627));
#652=PERSON_AND_ORGANIZATION_ROLE('design_owner');
#653=CC_DESIGN_PERSON_AND_ORGANIZATION_ASSIGNMENT(#643,#652,(#618));
#9=CIRCLE('',#8,1.E0);
#14=CIRCLE('',#13,1.E0);
#19=CIRCLE('',#18,2.4E0);
#28=CIRCLE('',#27,2.4E0);
#69=CIRCLE('',#68,2.4E0);
#74=CIRCLE('',#73,2.4E0);
#147=CIRCLE('',#146,1.E0);
#152=CIRCLE('',#151,1.E0);
#206=EDGE_CURVE('',#200,#199,#14,.T.);
#208=EDGE_CURVE('',#200,#195,#4,.T.);
#210=EDGE_CURVE('',#196,#195,#152,.T.);
#212=EDGE_CURVE('',#199,#196,#142,.T.);
#216=ADVANCED_FACE('',(#215),#205,.F.);
#222=EDGE_CURVE('',#191,#192,#19,.T.);
#224=EDGE_CURVE('',#192,#191,#28,.T.);
#228=EDGE_CURVE('',#199,#200,#9,.T.);
#233=ADVANCED_FACE('',(#227,#232),#221,.F.);
#240=EDGE_CURVE('',#188,#192,#32,.T.);
#242=EDGE_CURVE('',#187,#188,#69,.T.);
#244=EDGE_CURVE('',#187,#191,#23,.T.);
#248=ADVANCED_FACE('',(#247),#238,.T.);
#256=EDGE_CURVE('',#188,#187,#74,.T.);
#261=ADVANCED_FACE('',(#260),#253,.T.);
#267=EDGE_CURVE('',#171,#172,#36,.T.);
#269=EDGE_CURVE('',#184,#171,#40,.T.);
#271=EDGE_CURVE('',#182,#184,#44,.T.);
#273=EDGE_CURVE('',#180,#182,#48,.T.);
#275=EDGE_CURVE('',#178,#180,#52,.T.);
#277=EDGE_CURVE('',#176,#178,#56,.T.);
#279=EDGE_CURVE('',#174,#176,#60,.T.);
#281=EDGE_CURVE('',#172,#174,#64,.T.);
#289=ADVANCED_FACE('',(#284,#288),#266,.T.);
#295=EDGE_CURVE('',#155,#156,#82,.T.);
#297=EDGE_CURVE('',#155,#171,#78,.T.);
#300=EDGE_CURVE('',#156,#172,#114,.T.);
#304=ADVANCED_FACE('',(#303),#294,.T.);
#311=EDGE_CURVE('',#156,#158,#86,.T.);
#313=EDGE_CURVE('',#158,#160,#90,.T.);
#315=EDGE_CURVE('',#160,#162,#94,.T.);
#317=EDGE_CURVE('',#162,#164,#98,.T.);
#319=EDGE_CURVE('',#164,#166,#102,.T.);
#321=EDGE_CURVE('',#166,#168,#106,.T.);
#323=EDGE_CURVE('',#168,#155,#110,.T.);
#327=ADVANCED_FACE('',(#326),#309,.F.);
#336=EDGE_CURVE('',#158,#174,#118,.T.);
#340=ADVANCED_FACE('',(#339),#332,.T.);
#349=EDGE_CURVE('',#160,#176,#122,.T.);
#353=ADVANCED_FACE('',(#352),#345,.T.);
#362=EDGE_CURVE('',#162,#178,#126,.T.);
#366=ADVANCED_FACE('',(#365),#358,.T.);
#375=EDGE_CURVE('',#164,#180,#130,.T.);
#379=ADVANCED_FACE('',(#378),#371,.T.);
#388=EDGE_CURVE('',#166,#182,#134,.T.);
#392=ADVANCED_FACE('',(#391),#384,.T.);
#401=EDGE_CURVE('',#168,#184,#138,.T.);
#405=ADVANCED_FACE('',(#404),#397,.T.);
#417=ADVANCED_FACE('',(#416),#410,.T.);
#425=EDGE_CURVE('',#195,#196,#147,.T.);
#430=ADVANCED_FACE('',(#429),#422,.F.);
#440=ADVANCED_FACE('',(#439),#435,.T.);
#447=CIRCLE('',#446,2.4E0);
#452=CIRCLE('',#451,2.4E0);
#457=CIRCLE('',#456,1.E0);
#462=CIRCLE('',#461,1.E0);
#467=CIRCLE('',#466,2.4E0);
#476=CIRCLE('',#475,1.E0);
#481=CIRCLE('',#480,1.E0);
#486=CIRCLE('',#485,2.4E0);
#520=EDGE_CURVE('',#501,#502,#447,.T.);
#522=EDGE_CURVE('',#502,#501,#452,.T.);
#526=EDGE_CURVE('',#509,#510,#457,.T.);
#528=EDGE_CURVE('',#510,#509,#462,.T.);
#532=ADVANCED_FACE('',(#525,#531),#519,.T.);
#538=EDGE_CURVE('',#505,#506,#467,.T.);
#540=EDGE_CURVE('',#506,#501,#471,.T.);
#543=EDGE_CURVE('',#505,#502,#490,.T.);
#547=ADVANCED_FACE('',(#546),#537,.T.);
#554=EDGE_CURVE('',#506,#505,#486,.T.);
#558=EDGE_CURVE('',#513,#514,#476,.T.);
#560=EDGE_CURVE('',#514,#513,#481,.T.);
#564=ADVANCED_FACE('',(#557,#563),#552,.F.);
#576=ADVANCED_FACE('',(#575),#569,.T.);
#583=EDGE_CURVE('',#509,#513,#494,.T.);
#586=EDGE_CURVE('',#510,#514,#498,.T.);
#590=ADVANCED_FACE('',(#589),#581,.F.);
#602=ADVANCED_FACE('',(#601),#595,.F.);
#605=(LENGTH_UNIT()NAMED_UNIT(*)SI_UNIT(.MILLI.,.METRE.));
#607=(NAMED_UNIT(*)PLANE_ANGLE_UNIT()SI_UNIT($,.RADIAN.));
#610=(NAMED_UNIT(*)SI_UNIT($,.STERADIAN.)SOLID_ANGLE_UNIT());
#612=(GEOMETRIC_REPRESENTATION_CONTEXT(3)GLOBAL_UNCERTAINTY_ASSIGNED_CONTEXT((
#611))GLOBAL_UNIT_ASSIGNED_CONTEXT((#605,#609,#610))REPRESENTATION_CONTEXT
('ID1','3'));
#613=ADVANCED_BREP_SHAPE_REPRESENTATION('',(#442,#604),#612);
#620=PRODUCT_DEFINITION('design','',#619,#616);
#621=PRODUCT_DEFINITION_SHAPE('','SHAPE FOR 2039-XX-SM.',#620);
#622=SHAPE_DEFINITION_REPRESENTATION(#621,#613);
ENDSEC;
END-ISO-10303-21;
