ISO-10303-21;
HEADER;
FILE_DESCRIPTION((''),'2;1');
FILE_NAME('2056-XX-A','2012-08-07T',('ryans'),('Bourns, Inc.'),
'PRO/ENGINEER BY PARAMETRIC TECHNOLOGY CORPORATION, 2010100',
'PRO/ENGINEER BY PARAMETRIC TECHNOLOGY CORPORATION, 2010100','');
FILE_SCHEMA(('CONFIG_CONTROL_DESIGN'));
ENDSEC;
DATA;
#1=CARTESIAN_POINT('',(-4.25E0,0.E0,0.E0));
#2=DIRECTION('',(-1.E0,0.E0,0.E0));
#3=DIRECTION('',(0.E0,1.E0,0.E0));
#4=AXIS2_PLACEMENT_3D('',#1,#2,#3);
#6=CARTESIAN_POINT('',(-4.25E0,0.E0,0.E0));
#7=DIRECTION('',(1.E0,0.E0,0.E0));
#8=DIRECTION('',(0.E0,1.E0,0.E0));
#9=AXIS2_PLACEMENT_3D('',#6,#7,#8);
#11=CARTESIAN_POINT('',(-3.25E0,0.E0,0.E0));
#12=DIRECTION('',(-1.E0,0.E0,0.E0));
#13=DIRECTION('',(0.E0,1.E0,0.E0));
#14=AXIS2_PLACEMENT_3D('',#11,#12,#13);
#16=CARTESIAN_POINT('',(-3.25E0,0.E0,0.E0));
#17=DIRECTION('',(-1.E0,0.E0,0.E0));
#18=DIRECTION('',(0.E0,-1.E0,0.E0));
#19=AXIS2_PLACEMENT_3D('',#16,#17,#18);
#21=DIRECTION('',(-1.E0,0.E0,0.E0));
#22=VECTOR('',#21,1.E0);
#23=CARTESIAN_POINT('',(-3.25E0,-3.E0,0.E0));
#24=LINE('',#23,#22);
#25=DIRECTION('',(-1.E0,0.E0,0.E0));
#26=VECTOR('',#25,1.E0);
#27=CARTESIAN_POINT('',(-3.25E0,3.E0,0.E0));
#28=LINE('',#27,#26);
#29=CARTESIAN_POINT('',(-8.520172368518E0,0.E0,0.E0));
#30=DIRECTION('',(0.E0,0.E0,-1.E0));
#31=DIRECTION('',(9.055928223451E-1,4.241481346381E-1,0.E0));
#32=AXIS2_PLACEMENT_3D('',#29,#30,#31);
#34=CARTESIAN_POINT('',(-4.25E0,0.E0,0.E0));
#35=DIRECTION('',(1.E0,0.E0,0.E0));
#36=DIRECTION('',(0.E0,1.E0,0.E0));
#37=AXIS2_PLACEMENT_3D('',#34,#35,#36);
#39=CARTESIAN_POINT('',(-8.520172368518E0,0.E0,0.E0));
#40=DIRECTION('',(0.E0,0.E0,1.E0));
#41=DIRECTION('',(9.055928223451E-1,-4.241481346381E-1,0.E0));
#42=AXIS2_PLACEMENT_3D('',#39,#40,#41);
#44=CARTESIAN_POINT('',(-4.25E0,0.E0,0.E0));
#45=DIRECTION('',(-1.E0,0.E0,0.E0));
#46=DIRECTION('',(0.E0,1.E0,0.E0));
#47=AXIS2_PLACEMENT_3D('',#44,#45,#46);
#49=CARTESIAN_POINT('',(-4.25E0,2.E0,0.E0));
#50=CARTESIAN_POINT('',(-3.804838652135E0,0.E0,0.E0));
#51=VERTEX_POINT('',#49);
#52=VERTEX_POINT('',#50);
#53=CARTESIAN_POINT('',(-4.25E0,-2.E0,0.E0));
#54=VERTEX_POINT('',#53);
#55=CARTESIAN_POINT('',(-4.25E0,3.E0,0.E0));
#56=CARTESIAN_POINT('',(-4.25E0,-3.E0,0.E0));
#57=VERTEX_POINT('',#55);
#58=VERTEX_POINT('',#56);
#59=CARTESIAN_POINT('',(-3.25E0,3.E0,0.E0));
#60=CARTESIAN_POINT('',(-3.25E0,-3.E0,0.E0));
#61=VERTEX_POINT('',#59);
#62=VERTEX_POINT('',#60);
#63=CARTESIAN_POINT('',(-4.25E0,0.E0,0.E0));
#64=DIRECTION('',(-1.E0,0.E0,0.E0));
#65=DIRECTION('',(0.E0,1.E0,0.E0));
#66=AXIS2_PLACEMENT_3D('',#63,#64,#65);
#67=PLANE('',#66);
#69=ORIENTED_EDGE('',*,*,#68,.F.);
#71=ORIENTED_EDGE('',*,*,#70,.T.);
#72=EDGE_LOOP('',(#69,#71));
#73=FACE_OUTER_BOUND('',#72,.F.);
#75=ORIENTED_EDGE('',*,*,#74,.F.);
#77=ORIENTED_EDGE('',*,*,#76,.T.);
#78=EDGE_LOOP('',(#75,#77));
#79=FACE_BOUND('',#78,.F.);
#81=CARTESIAN_POINT('',(0.E0,0.E0,0.E0));
#82=DIRECTION('',(-1.E0,0.E0,0.E0));
#83=DIRECTION('',(0.E0,1.E0,0.E0));
#84=AXIS2_PLACEMENT_3D('',#81,#82,#83);
#85=CYLINDRICAL_SURFACE('',#84,3.E0);
#87=ORIENTED_EDGE('',*,*,#86,.F.);
#89=ORIENTED_EDGE('',*,*,#88,.T.);
#90=ORIENTED_EDGE('',*,*,#68,.T.);
#92=ORIENTED_EDGE('',*,*,#91,.F.);
#93=EDGE_LOOP('',(#87,#89,#90,#92));
#94=FACE_OUTER_BOUND('',#93,.F.);
#96=CARTESIAN_POINT('',(-3.25E0,3.E0,-3.601214270981E0));
#97=DIRECTION('',(-1.E0,0.E0,0.E0));
#98=DIRECTION('',(0.E0,-1.E0,0.E0));
#99=AXIS2_PLACEMENT_3D('',#96,#97,#98);
#100=PLANE('',#99);
#101=ORIENTED_EDGE('',*,*,#86,.T.);
#103=ORIENTED_EDGE('',*,*,#102,.T.);
#104=EDGE_LOOP('',(#101,#103));
#105=FACE_OUTER_BOUND('',#104,.F.);
#107=CARTESIAN_POINT('',(0.E0,0.E0,0.E0));
#108=DIRECTION('',(-1.E0,0.E0,0.E0));
#109=DIRECTION('',(0.E0,1.E0,0.E0));
#110=AXIS2_PLACEMENT_3D('',#107,#108,#109);
#111=CYLINDRICAL_SURFACE('',#110,3.E0);
#112=ORIENTED_EDGE('',*,*,#102,.F.);
#113=ORIENTED_EDGE('',*,*,#91,.T.);
#114=ORIENTED_EDGE('',*,*,#70,.F.);
#115=ORIENTED_EDGE('',*,*,#88,.F.);
#116=EDGE_LOOP('',(#112,#113,#114,#115));
#117=FACE_OUTER_BOUND('',#116,.F.);
#119=CARTESIAN_POINT('',(-8.520172368518E0,0.E0,0.E0));
#120=DIRECTION('',(-1.E0,0.E0,0.E0));
#121=DIRECTION('',(0.E0,1.E0,0.E0));
#122=AXIS2_PLACEMENT_3D('',#119,#120,#121);
#123=SPHERICAL_SURFACE('',#122,4.715333716382E0);
#125=ORIENTED_EDGE('',*,*,#124,.F.);
#126=ORIENTED_EDGE('',*,*,#74,.T.);
#128=ORIENTED_EDGE('',*,*,#127,.T.);
#129=EDGE_LOOP('',(#125,#126,#128));
#130=FACE_OUTER_BOUND('',#129,.F.);
#132=CARTESIAN_POINT('',(-8.520172368518E0,0.E0,0.E0));
#133=DIRECTION('',(-1.E0,0.E0,0.E0));
#134=DIRECTION('',(0.E0,1.E0,0.E0));
#135=AXIS2_PLACEMENT_3D('',#132,#133,#134);
#136=SPHERICAL_SURFACE('',#135,4.715333716382E0);
#137=ORIENTED_EDGE('',*,*,#124,.T.);
#138=ORIENTED_EDGE('',*,*,#127,.F.);
#139=ORIENTED_EDGE('',*,*,#76,.F.);
#140=EDGE_LOOP('',(#137,#138,#139));
#141=FACE_OUTER_BOUND('',#140,.F.);
#143=CLOSED_SHELL('',(#80,#95,#106,#118,#131,#142));
#144=MANIFOLD_SOLID_BREP('',#143);
#145=CARTESIAN_POINT('',(8.520172368518E0,0.E0,0.E0));
#146=DIRECTION('',(0.E0,0.E0,-1.E0));
#147=DIRECTION('',(-1.E0,0.E0,0.E0));
#148=AXIS2_PLACEMENT_3D('',#145,#146,#147);
#150=CARTESIAN_POINT('',(8.520172368518E0,0.E0,0.E0));
#151=DIRECTION('',(0.E0,0.E0,1.E0));
#152=DIRECTION('',(-1.E0,0.E0,0.E0));
#153=AXIS2_PLACEMENT_3D('',#150,#151,#152);
#155=CARTESIAN_POINT('',(4.25E0,0.E0,0.E0));
#156=DIRECTION('',(-1.E0,0.E0,0.E0));
#157=DIRECTION('',(0.E0,1.E0,0.E0));
#158=AXIS2_PLACEMENT_3D('',#155,#156,#157);
#160=CARTESIAN_POINT('',(4.25E0,0.E0,0.E0));
#161=DIRECTION('',(1.E0,0.E0,0.E0));
#162=DIRECTION('',(0.E0,1.E0,0.E0));
#163=AXIS2_PLACEMENT_3D('',#160,#161,#162);
#165=CARTESIAN_POINT('',(3.25E0,0.E0,0.E0));
#166=DIRECTION('',(-1.E0,0.E0,0.E0));
#167=DIRECTION('',(0.E0,-1.E0,0.E0));
#168=AXIS2_PLACEMENT_3D('',#165,#166,#167);
#170=DIRECTION('',(-1.E0,0.E0,0.E0));
#171=VECTOR('',#170,1.E0);
#172=CARTESIAN_POINT('',(4.25E0,3.E0,0.E0));
#173=LINE('',#172,#171);
#174=CARTESIAN_POINT('',(4.25E0,0.E0,0.E0));
#175=DIRECTION('',(1.E0,0.E0,0.E0));
#176=DIRECTION('',(0.E0,1.E0,0.E0));
#177=AXIS2_PLACEMENT_3D('',#174,#175,#176);
#179=DIRECTION('',(-1.E0,0.E0,0.E0));
#180=VECTOR('',#179,1.E0);
#181=CARTESIAN_POINT('',(4.25E0,-3.E0,0.E0));
#182=LINE('',#181,#180);
#183=CARTESIAN_POINT('',(3.25E0,0.E0,0.E0));
#184=DIRECTION('',(-1.E0,0.E0,0.E0));
#185=DIRECTION('',(0.E0,1.E0,0.E0));
#186=AXIS2_PLACEMENT_3D('',#183,#184,#185);
#188=CARTESIAN_POINT('',(4.25E0,0.E0,0.E0));
#189=DIRECTION('',(-1.E0,0.E0,0.E0));
#190=DIRECTION('',(0.E0,1.E0,0.E0));
#191=AXIS2_PLACEMENT_3D('',#188,#189,#190);
#193=CARTESIAN_POINT('',(3.804838652135E0,0.E0,0.E0));
#194=CARTESIAN_POINT('',(4.25E0,2.E0,0.E0));
#195=VERTEX_POINT('',#193);
#196=VERTEX_POINT('',#194);
#197=CARTESIAN_POINT('',(4.25E0,-2.E0,0.E0));
#198=VERTEX_POINT('',#197);
#199=CARTESIAN_POINT('',(4.25E0,3.E0,0.E0));
#200=CARTESIAN_POINT('',(4.25E0,-3.E0,0.E0));
#201=VERTEX_POINT('',#199);
#202=VERTEX_POINT('',#200);
#203=CARTESIAN_POINT('',(3.25E0,3.E0,0.E0));
#204=CARTESIAN_POINT('',(3.25E0,-3.E0,0.E0));
#205=VERTEX_POINT('',#203);
#206=VERTEX_POINT('',#204);
#207=CARTESIAN_POINT('',(8.520172368518E0,0.E0,0.E0));
#208=DIRECTION('',(-1.E0,0.E0,0.E0));
#209=DIRECTION('',(0.E0,1.E0,0.E0));
#210=AXIS2_PLACEMENT_3D('',#207,#208,#209);
#211=SPHERICAL_SURFACE('',#210,4.715333716382E0);
#213=ORIENTED_EDGE('',*,*,#212,.T.);
#215=ORIENTED_EDGE('',*,*,#214,.T.);
#217=ORIENTED_EDGE('',*,*,#216,.F.);
#218=EDGE_LOOP('',(#213,#215,#217));
#219=FACE_OUTER_BOUND('',#218,.F.);
#221=CARTESIAN_POINT('',(8.520172368518E0,0.E0,0.E0));
#222=DIRECTION('',(-1.E0,0.E0,0.E0));
#223=DIRECTION('',(0.E0,1.E0,0.E0));
#224=AXIS2_PLACEMENT_3D('',#221,#222,#223);
#225=SPHERICAL_SURFACE('',#224,4.715333716382E0);
#226=ORIENTED_EDGE('',*,*,#212,.F.);
#227=ORIENTED_EDGE('',*,*,#216,.T.);
#229=ORIENTED_EDGE('',*,*,#228,.F.);
#230=EDGE_LOOP('',(#226,#227,#229));
#231=FACE_OUTER_BOUND('',#230,.F.);
#233=CARTESIAN_POINT('',(4.25E0,0.E0,0.E0));
#234=DIRECTION('',(-1.E0,0.E0,0.E0));
#235=DIRECTION('',(0.E0,1.E0,0.E0));
#236=AXIS2_PLACEMENT_3D('',#233,#234,#235);
#237=PLANE('',#236);
#239=ORIENTED_EDGE('',*,*,#238,.F.);
#241=ORIENTED_EDGE('',*,*,#240,.T.);
#242=EDGE_LOOP('',(#239,#241));
#243=FACE_OUTER_BOUND('',#242,.F.);
#244=ORIENTED_EDGE('',*,*,#214,.F.);
#245=ORIENTED_EDGE('',*,*,#228,.T.);
#246=EDGE_LOOP('',(#244,#245));
#247=FACE_BOUND('',#246,.F.);
#249=CARTESIAN_POINT('',(0.E0,0.E0,0.E0));
#250=DIRECTION('',(-1.E0,0.E0,0.E0));
#251=DIRECTION('',(0.E0,1.E0,0.E0));
#252=AXIS2_PLACEMENT_3D('',#249,#250,#251);
#253=CYLINDRICAL_SURFACE('',#252,3.E0);
#255=ORIENTED_EDGE('',*,*,#254,.T.);
#257=ORIENTED_EDGE('',*,*,#256,.F.);
#258=ORIENTED_EDGE('',*,*,#238,.T.);
#260=ORIENTED_EDGE('',*,*,#259,.T.);
#261=EDGE_LOOP('',(#255,#257,#258,#260));
#262=FACE_OUTER_BOUND('',#261,.F.);
#264=CARTESIAN_POINT('',(3.25E0,-3.E0,-3.601214270981E0));
#265=DIRECTION('',(1.E0,0.E0,0.E0));
#266=DIRECTION('',(0.E0,1.E0,0.E0));
#267=AXIS2_PLACEMENT_3D('',#264,#265,#266);
#268=PLANE('',#267);
#270=ORIENTED_EDGE('',*,*,#269,.F.);
#271=ORIENTED_EDGE('',*,*,#254,.F.);
#272=EDGE_LOOP('',(#270,#271));
#273=FACE_OUTER_BOUND('',#272,.F.);
#275=CARTESIAN_POINT('',(0.E0,0.E0,0.E0));
#276=DIRECTION('',(-1.E0,0.E0,0.E0));
#277=DIRECTION('',(0.E0,1.E0,0.E0));
#278=AXIS2_PLACEMENT_3D('',#275,#276,#277);
#279=CYLINDRICAL_SURFACE('',#278,3.E0);
#280=ORIENTED_EDGE('',*,*,#269,.T.);
#281=ORIENTED_EDGE('',*,*,#259,.F.);
#282=ORIENTED_EDGE('',*,*,#240,.F.);
#283=ORIENTED_EDGE('',*,*,#256,.T.);
#284=EDGE_LOOP('',(#280,#281,#282,#283));
#285=FACE_OUTER_BOUND('',#284,.F.);
#287=CLOSED_SHELL('',(#220,#232,#248,#263,#274,#286));
#288=MANIFOLD_SOLID_BREP('',#287);
#289=CARTESIAN_POINT('',(3.2E0,0.E0,0.E0));
#290=DIRECTION('',(-1.E0,0.E0,0.E0));
#291=DIRECTION('',(0.E0,1.E0,0.E0));
#292=AXIS2_PLACEMENT_3D('',#289,#290,#291);
#294=CARTESIAN_POINT('',(8.E-1,0.E0,0.E0));
#295=DIRECTION('',(-1.E0,0.E0,0.E0));
#296=DIRECTION('',(0.E0,1.E0,0.E0));
#297=AXIS2_PLACEMENT_3D('',#294,#295,#296);
#299=CARTESIAN_POINT('',(3.2E0,0.E0,0.E0));
#300=DIRECTION('',(-1.E0,0.E0,0.E0));
#301=DIRECTION('',(0.E0,-1.E0,0.E0));
#302=AXIS2_PLACEMENT_3D('',#299,#300,#301);
#304=DIRECTION('',(-1.E0,0.E0,0.E0));
#305=VECTOR('',#304,2.4E0);
#306=CARTESIAN_POINT('',(3.2E0,-3.E0,0.E0));
#307=LINE('',#306,#305);
#308=CARTESIAN_POINT('',(8.E-1,0.E0,0.E0));
#309=DIRECTION('',(-1.E0,0.E0,0.E0));
#310=DIRECTION('',(0.E0,-1.E0,0.E0));
#311=AXIS2_PLACEMENT_3D('',#308,#309,#310);
#313=DIRECTION('',(-1.E0,0.E0,0.E0));
#314=VECTOR('',#313,2.4E0);
#315=CARTESIAN_POINT('',(3.2E0,3.E0,0.E0));
#316=LINE('',#315,#314);
#317=CARTESIAN_POINT('',(3.2E0,3.E0,0.E0));
#318=CARTESIAN_POINT('',(3.2E0,-3.E0,0.E0));
#319=VERTEX_POINT('',#317);
#320=VERTEX_POINT('',#318);
#321=CARTESIAN_POINT('',(8.E-1,3.E0,0.E0));
#322=VERTEX_POINT('',#321);
#323=CARTESIAN_POINT('',(8.E-1,-3.E0,0.E0));
#324=VERTEX_POINT('',#323);
#325=CARTESIAN_POINT('',(0.E0,0.E0,0.E0));
#326=DIRECTION('',(-1.E0,0.E0,0.E0));
#327=DIRECTION('',(0.E0,1.E0,0.E0));
#328=AXIS2_PLACEMENT_3D('',#325,#326,#327);
#329=CYLINDRICAL_SURFACE('',#328,3.E0);
#331=ORIENTED_EDGE('',*,*,#330,.F.);
#333=ORIENTED_EDGE('',*,*,#332,.T.);
#335=ORIENTED_EDGE('',*,*,#334,.T.);
#337=ORIENTED_EDGE('',*,*,#336,.F.);
#338=EDGE_LOOP('',(#331,#333,#335,#337));
#339=FACE_OUTER_BOUND('',#338,.F.);
#341=CARTESIAN_POINT('',(3.2E0,3.E0,-3.601214270981E0));
#342=DIRECTION('',(-1.E0,0.E0,0.E0));
#343=DIRECTION('',(0.E0,-1.E0,0.E0));
#344=AXIS2_PLACEMENT_3D('',#341,#342,#343);
#345=PLANE('',#344);
#346=ORIENTED_EDGE('',*,*,#330,.T.);
#348=ORIENTED_EDGE('',*,*,#347,.T.);
#349=EDGE_LOOP('',(#346,#348));
#350=FACE_OUTER_BOUND('',#349,.F.);
#352=CARTESIAN_POINT('',(0.E0,0.E0,0.E0));
#353=DIRECTION('',(-1.E0,0.E0,0.E0));
#354=DIRECTION('',(0.E0,1.E0,0.E0));
#355=AXIS2_PLACEMENT_3D('',#352,#353,#354);
#356=CYLINDRICAL_SURFACE('',#355,3.E0);
#357=ORIENTED_EDGE('',*,*,#347,.F.);
#358=ORIENTED_EDGE('',*,*,#336,.T.);
#360=ORIENTED_EDGE('',*,*,#359,.T.);
#361=ORIENTED_EDGE('',*,*,#332,.F.);
#362=EDGE_LOOP('',(#357,#358,#360,#361));
#363=FACE_OUTER_BOUND('',#362,.F.);
#365=CARTESIAN_POINT('',(8.E-1,-3.E0,-3.601214270981E0));
#366=DIRECTION('',(1.E0,0.E0,0.E0));
#367=DIRECTION('',(0.E0,1.E0,0.E0));
#368=AXIS2_PLACEMENT_3D('',#365,#366,#367);
#369=PLANE('',#368);
#370=ORIENTED_EDGE('',*,*,#334,.F.);
#371=ORIENTED_EDGE('',*,*,#359,.F.);
#372=EDGE_LOOP('',(#370,#371));
#373=FACE_OUTER_BOUND('',#372,.F.);
#375=CLOSED_SHELL('',(#340,#351,#364,#374));
#376=MANIFOLD_SOLID_BREP('',#375);
#377=CARTESIAN_POINT('',(-3.2E0,0.E0,0.E0));
#378=DIRECTION('',(-1.E0,0.E0,0.E0));
#379=DIRECTION('',(0.E0,1.E0,0.E0));
#380=AXIS2_PLACEMENT_3D('',#377,#378,#379);
#382=CARTESIAN_POINT('',(-8.E-1,0.E0,0.E0));
#383=DIRECTION('',(-1.E0,0.E0,0.E0));
#384=DIRECTION('',(0.E0,1.E0,0.E0));
#385=AXIS2_PLACEMENT_3D('',#382,#383,#384);
#387=CARTESIAN_POINT('',(-3.2E0,0.E0,0.E0));
#388=DIRECTION('',(-1.E0,0.E0,0.E0));
#389=DIRECTION('',(0.E0,-1.E0,0.E0));
#390=AXIS2_PLACEMENT_3D('',#387,#388,#389);
#392=DIRECTION('',(-1.E0,0.E0,0.E0));
#393=VECTOR('',#392,2.4E0);
#394=CARTESIAN_POINT('',(-8.E-1,3.E0,0.E0));
#395=LINE('',#394,#393);
#396=CARTESIAN_POINT('',(-8.E-1,0.E0,0.E0));
#397=DIRECTION('',(-1.E0,0.E0,0.E0));
#398=DIRECTION('',(0.E0,-1.E0,0.E0));
#399=AXIS2_PLACEMENT_3D('',#396,#397,#398);
#401=DIRECTION('',(-1.E0,0.E0,0.E0));
#402=VECTOR('',#401,2.4E0);
#403=CARTESIAN_POINT('',(-8.E-1,-3.E0,0.E0));
#404=LINE('',#403,#402);
#405=CARTESIAN_POINT('',(-3.2E0,3.E0,0.E0));
#406=CARTESIAN_POINT('',(-3.2E0,-3.E0,0.E0));
#407=VERTEX_POINT('',#405);
#408=VERTEX_POINT('',#406);
#409=CARTESIAN_POINT('',(-8.E-1,3.E0,0.E0));
#410=VERTEX_POINT('',#409);
#411=CARTESIAN_POINT('',(-8.E-1,-3.E0,0.E0));
#412=VERTEX_POINT('',#411);
#413=CARTESIAN_POINT('',(0.E0,0.E0,0.E0));
#414=DIRECTION('',(-1.E0,0.E0,0.E0));
#415=DIRECTION('',(0.E0,1.E0,0.E0));
#416=AXIS2_PLACEMENT_3D('',#413,#414,#415);
#417=CYLINDRICAL_SURFACE('',#416,3.E0);
#419=ORIENTED_EDGE('',*,*,#418,.T.);
#421=ORIENTED_EDGE('',*,*,#420,.F.);
#423=ORIENTED_EDGE('',*,*,#422,.F.);
#425=ORIENTED_EDGE('',*,*,#424,.T.);
#426=EDGE_LOOP('',(#419,#421,#423,#425));
#427=FACE_OUTER_BOUND('',#426,.F.);
#429=CARTESIAN_POINT('',(-3.2E0,-3.E0,-3.601214270981E0));
#430=DIRECTION('',(1.E0,0.E0,0.E0));
#431=DIRECTION('',(0.E0,1.E0,0.E0));
#432=AXIS2_PLACEMENT_3D('',#429,#430,#431);
#433=PLANE('',#432);
#434=ORIENTED_EDGE('',*,*,#418,.F.);
#436=ORIENTED_EDGE('',*,*,#435,.F.);
#437=EDGE_LOOP('',(#434,#436));
#438=FACE_OUTER_BOUND('',#437,.F.);
#440=CARTESIAN_POINT('',(0.E0,0.E0,0.E0));
#441=DIRECTION('',(-1.E0,0.E0,0.E0));
#442=DIRECTION('',(0.E0,1.E0,0.E0));
#443=AXIS2_PLACEMENT_3D('',#440,#441,#442);
#444=CYLINDRICAL_SURFACE('',#443,3.E0);
#445=ORIENTED_EDGE('',*,*,#435,.T.);
#446=ORIENTED_EDGE('',*,*,#424,.F.);
#448=ORIENTED_EDGE('',*,*,#447,.F.);
#449=ORIENTED_EDGE('',*,*,#420,.T.);
#450=EDGE_LOOP('',(#445,#446,#448,#449));
#451=FACE_OUTER_BOUND('',#450,.F.);
#453=CARTESIAN_POINT('',(-8.E-1,3.E0,-3.601214270981E0));
#454=DIRECTION('',(-1.E0,0.E0,0.E0));
#455=DIRECTION('',(0.E0,-1.E0,0.E0));
#456=AXIS2_PLACEMENT_3D('',#453,#454,#455);
#457=PLANE('',#456);
#458=ORIENTED_EDGE('',*,*,#422,.T.);
#459=ORIENTED_EDGE('',*,*,#447,.T.);
#460=EDGE_LOOP('',(#458,#459));
#461=FACE_OUTER_BOUND('',#460,.F.);
#463=CLOSED_SHELL('',(#428,#439,#452,#462));
#464=MANIFOLD_SOLID_BREP('',#463);
#465=CARTESIAN_POINT('',(7.5E-1,0.E0,0.E0));
#466=DIRECTION('',(-1.E0,0.E0,0.E0));
#467=DIRECTION('',(0.E0,1.E0,0.E0));
#468=AXIS2_PLACEMENT_3D('',#465,#466,#467);
#470=CARTESIAN_POINT('',(-7.5E-1,0.E0,0.E0));
#471=DIRECTION('',(-1.E0,0.E0,0.E0));
#472=DIRECTION('',(0.E0,1.E0,0.E0));
#473=AXIS2_PLACEMENT_3D('',#470,#471,#472);
#475=CARTESIAN_POINT('',(7.5E-1,0.E0,0.E0));
#476=DIRECTION('',(-1.E0,0.E0,0.E0));
#477=DIRECTION('',(0.E0,-1.E0,0.E0));
#478=AXIS2_PLACEMENT_3D('',#475,#476,#477);
#480=DIRECTION('',(-1.E0,0.E0,0.E0));
#481=VECTOR('',#480,1.5E0);
#482=CARTESIAN_POINT('',(7.5E-1,-3.E0,0.E0));
#483=LINE('',#482,#481);
#484=CARTESIAN_POINT('',(-7.5E-1,0.E0,0.E0));
#485=DIRECTION('',(-1.E0,0.E0,0.E0));
#486=DIRECTION('',(0.E0,-1.E0,0.E0));
#487=AXIS2_PLACEMENT_3D('',#484,#485,#486);
#489=DIRECTION('',(-1.E0,0.E0,0.E0));
#490=VECTOR('',#489,1.5E0);
#491=CARTESIAN_POINT('',(7.5E-1,3.E0,0.E0));
#492=LINE('',#491,#490);
#493=CARTESIAN_POINT('',(7.5E-1,3.E0,0.E0));
#494=CARTESIAN_POINT('',(7.5E-1,-3.E0,0.E0));
#495=VERTEX_POINT('',#493);
#496=VERTEX_POINT('',#494);
#497=CARTESIAN_POINT('',(-7.5E-1,3.E0,0.E0));
#498=CARTESIAN_POINT('',(-7.5E-1,-3.E0,0.E0));
#499=VERTEX_POINT('',#497);
#500=VERTEX_POINT('',#498);
#501=CARTESIAN_POINT('',(0.E0,0.E0,0.E0));
#502=DIRECTION('',(-1.E0,0.E0,0.E0));
#503=DIRECTION('',(0.E0,1.E0,0.E0));
#504=AXIS2_PLACEMENT_3D('',#501,#502,#503);
#505=CYLINDRICAL_SURFACE('',#504,3.E0);
#507=ORIENTED_EDGE('',*,*,#506,.F.);
#509=ORIENTED_EDGE('',*,*,#508,.T.);
#511=ORIENTED_EDGE('',*,*,#510,.T.);
#513=ORIENTED_EDGE('',*,*,#512,.F.);
#514=EDGE_LOOP('',(#507,#509,#511,#513));
#515=FACE_OUTER_BOUND('',#514,.F.);
#517=CARTESIAN_POINT('',(7.5E-1,3.E0,-3.601214270981E0));
#518=DIRECTION('',(-1.E0,0.E0,0.E0));
#519=DIRECTION('',(0.E0,-1.E0,0.E0));
#520=AXIS2_PLACEMENT_3D('',#517,#518,#519);
#521=PLANE('',#520);
#522=ORIENTED_EDGE('',*,*,#506,.T.);
#524=ORIENTED_EDGE('',*,*,#523,.T.);
#525=EDGE_LOOP('',(#522,#524));
#526=FACE_OUTER_BOUND('',#525,.F.);
#528=CARTESIAN_POINT('',(0.E0,0.E0,0.E0));
#529=DIRECTION('',(-1.E0,0.E0,0.E0));
#530=DIRECTION('',(0.E0,1.E0,0.E0));
#531=AXIS2_PLACEMENT_3D('',#528,#529,#530);
#532=CYLINDRICAL_SURFACE('',#531,3.E0);
#533=ORIENTED_EDGE('',*,*,#523,.F.);
#534=ORIENTED_EDGE('',*,*,#512,.T.);
#536=ORIENTED_EDGE('',*,*,#535,.T.);
#537=ORIENTED_EDGE('',*,*,#508,.F.);
#538=EDGE_LOOP('',(#533,#534,#536,#537));
#539=FACE_OUTER_BOUND('',#538,.F.);
#541=CARTESIAN_POINT('',(-7.5E-1,-3.E0,-3.601214270981E0));
#542=DIRECTION('',(1.E0,0.E0,0.E0));
#543=DIRECTION('',(0.E0,1.E0,0.E0));
#544=AXIS2_PLACEMENT_3D('',#541,#542,#543);
#545=PLANE('',#544);
#546=ORIENTED_EDGE('',*,*,#510,.F.);
#547=ORIENTED_EDGE('',*,*,#535,.F.);
#548=EDGE_LOOP('',(#546,#547));
#549=FACE_OUTER_BOUND('',#548,.F.);
#551=CLOSED_SHELL('',(#516,#527,#540,#550));
#552=MANIFOLD_SOLID_BREP('',#551);
#554=DIMENSIONAL_EXPONENTS(0.E0,0.E0,0.E0,0.E0,0.E0,0.E0,0.E0);
#556=PLANE_ANGLE_MEASURE_WITH_UNIT(PLANE_ANGLE_MEASURE(1.745329251994E-2),#555);
#557=(CONVERSION_BASED_UNIT('DEGREE',#556)NAMED_UNIT(*)PLANE_ANGLE_UNIT());
#559=UNCERTAINTY_MEASURE_WITH_UNIT(LENGTH_MEASURE(5.004559514884E-4),#553,
'closure',
'Maximum model space distance between geometric entities at asserted connectivities');
#562=APPLICATION_CONTEXT(
'CONFIGURATION CONTROLLED 3D DESIGNS OF MECHANICAL PARTS AND ASSEMBLIES');
#563=APPLICATION_PROTOCOL_DEFINITION('international standard',
'config_control_design',1994,#562);
#564=DESIGN_CONTEXT('',#562,'design');
#565=MECHANICAL_CONTEXT('',#562,'mechanical');
#566=PRODUCT('2056-XX-A','2056-XX-A','NOT SPECIFIED',(#565));
#567=PRODUCT_DEFINITION_FORMATION_WITH_SPECIFIED_SOURCE('2','LAST_VERSION',#566,
.MADE.);
#571=PRODUCT_CATEGORY('part','');
#572=PRODUCT_RELATED_PRODUCT_CATEGORY('detail','',(#566));
#573=PRODUCT_CATEGORY_RELATIONSHIP('','',#571,#572);
#574=SECURITY_CLASSIFICATION_LEVEL('unclassified');
#575=SECURITY_CLASSIFICATION('','',#574);
#576=CC_DESIGN_SECURITY_CLASSIFICATION(#575,(#567));
#577=APPROVAL_STATUS('approved');
#578=APPROVAL(#577,'');
#579=CC_DESIGN_APPROVAL(#578,(#575,#567,#568));
#580=CALENDAR_DATE(112,7,8);
#581=COORDINATED_UNIVERSAL_TIME_OFFSET(7,0,.BEHIND.);
#582=LOCAL_TIME(8,21,4.8E1,#581);
#583=DATE_AND_TIME(#580,#582);
#584=APPROVAL_DATE_TIME(#583,#578);
#585=DATE_TIME_ROLE('creation_date');
#586=CC_DESIGN_DATE_AND_TIME_ASSIGNMENT(#583,#585,(#568));
#587=DATE_TIME_ROLE('classification_date');
#588=CC_DESIGN_DATE_AND_TIME_ASSIGNMENT(#583,#587,(#575));
#589=PERSON('UNSPECIFIED','UNSPECIFIED',$,$,$,$);
#590=ORGANIZATION('UNSPECIFIED','UNSPECIFIED','UNSPECIFIED');
#591=PERSON_AND_ORGANIZATION(#589,#590);
#592=APPROVAL_ROLE('approver');
#593=APPROVAL_PERSON_ORGANIZATION(#591,#578,#592);
#594=PERSON_AND_ORGANIZATION_ROLE('creator');
#595=CC_DESIGN_PERSON_AND_ORGANIZATION_ASSIGNMENT(#591,#594,(#567,#568));
#596=PERSON_AND_ORGANIZATION_ROLE('design_supplier');
#597=CC_DESIGN_PERSON_AND_ORGANIZATION_ASSIGNMENT(#591,#596,(#567));
#598=PERSON_AND_ORGANIZATION_ROLE('classification_officer');
#599=CC_DESIGN_PERSON_AND_ORGANIZATION_ASSIGNMENT(#591,#598,(#575));
#600=PERSON_AND_ORGANIZATION_ROLE('design_owner');
#601=CC_DESIGN_PERSON_AND_ORGANIZATION_ASSIGNMENT(#591,#600,(#566));
#5=CIRCLE('',#4,3.E0);
#10=CIRCLE('',#9,3.E0);
#15=CIRCLE('',#14,3.E0);
#20=CIRCLE('',#19,3.E0);
#33=CIRCLE('',#32,4.715333716382E0);
#38=CIRCLE('',#37,2.E0);
#43=CIRCLE('',#42,4.715333716382E0);
#48=CIRCLE('',#47,2.E0);
#68=EDGE_CURVE('',#57,#58,#5,.T.);
#70=EDGE_CURVE('',#57,#58,#10,.T.);
#74=EDGE_CURVE('',#51,#54,#38,.T.);
#76=EDGE_CURVE('',#51,#54,#48,.T.);
#80=ADVANCED_FACE('',(#73,#79),#67,.T.);
#86=EDGE_CURVE('',#61,#62,#15,.T.);
#88=EDGE_CURVE('',#61,#57,#28,.T.);
#91=EDGE_CURVE('',#62,#58,#24,.T.);
#95=ADVANCED_FACE('',(#94),#85,.T.);
#102=EDGE_CURVE('',#62,#61,#20,.T.);
#106=ADVANCED_FACE('',(#105),#100,.F.);
#118=ADVANCED_FACE('',(#117),#111,.T.);
#124=EDGE_CURVE('',#51,#52,#33,.T.);
#127=EDGE_CURVE('',#54,#52,#43,.T.);
#131=ADVANCED_FACE('',(#130),#123,.F.);
#142=ADVANCED_FACE('',(#141),#136,.F.);
#149=CIRCLE('',#148,4.715333716382E0);
#154=CIRCLE('',#153,4.715333716382E0);
#159=CIRCLE('',#158,2.E0);
#164=CIRCLE('',#163,2.E0);
#169=CIRCLE('',#168,3.E0);
#178=CIRCLE('',#177,3.E0);
#187=CIRCLE('',#186,3.E0);
#192=CIRCLE('',#191,3.E0);
#212=EDGE_CURVE('',#195,#196,#149,.T.);
#214=EDGE_CURVE('',#196,#198,#159,.T.);
#216=EDGE_CURVE('',#195,#198,#154,.T.);
#220=ADVANCED_FACE('',(#219),#211,.F.);
#228=EDGE_CURVE('',#196,#198,#164,.T.);
#232=ADVANCED_FACE('',(#231),#225,.F.);
#238=EDGE_CURVE('',#201,#202,#178,.T.);
#240=EDGE_CURVE('',#201,#202,#192,.T.);
#248=ADVANCED_FACE('',(#243,#247),#237,.F.);
#254=EDGE_CURVE('',#206,#205,#169,.T.);
#256=EDGE_CURVE('',#201,#205,#173,.T.);
#259=EDGE_CURVE('',#202,#206,#182,.T.);
#263=ADVANCED_FACE('',(#262),#253,.T.);
#269=EDGE_CURVE('',#205,#206,#187,.T.);
#274=ADVANCED_FACE('',(#273),#268,.F.);
#286=ADVANCED_FACE('',(#285),#279,.T.);
#293=CIRCLE('',#292,3.E0);
#298=CIRCLE('',#297,3.E0);
#303=CIRCLE('',#302,3.E0);
#312=CIRCLE('',#311,3.E0);
#330=EDGE_CURVE('',#319,#320,#293,.T.);
#332=EDGE_CURVE('',#319,#322,#316,.T.);
#334=EDGE_CURVE('',#322,#324,#298,.T.);
#336=EDGE_CURVE('',#320,#324,#307,.T.);
#340=ADVANCED_FACE('',(#339),#329,.T.);
#347=EDGE_CURVE('',#320,#319,#303,.T.);
#351=ADVANCED_FACE('',(#350),#345,.F.);
#359=EDGE_CURVE('',#324,#322,#312,.T.);
#364=ADVANCED_FACE('',(#363),#356,.T.);
#374=ADVANCED_FACE('',(#373),#369,.F.);
#381=CIRCLE('',#380,3.E0);
#386=CIRCLE('',#385,3.E0);
#391=CIRCLE('',#390,3.E0);
#400=CIRCLE('',#399,3.E0);
#418=EDGE_CURVE('',#407,#408,#381,.T.);
#420=EDGE_CURVE('',#412,#408,#404,.T.);
#422=EDGE_CURVE('',#410,#412,#386,.T.);
#424=EDGE_CURVE('',#410,#407,#395,.T.);
#428=ADVANCED_FACE('',(#427),#417,.T.);
#435=EDGE_CURVE('',#408,#407,#391,.T.);
#439=ADVANCED_FACE('',(#438),#433,.F.);
#447=EDGE_CURVE('',#412,#410,#400,.T.);
#452=ADVANCED_FACE('',(#451),#444,.T.);
#462=ADVANCED_FACE('',(#461),#457,.F.);
#469=CIRCLE('',#468,3.E0);
#474=CIRCLE('',#473,3.E0);
#479=CIRCLE('',#478,3.E0);
#488=CIRCLE('',#487,3.E0);
#506=EDGE_CURVE('',#495,#496,#469,.T.);
#508=EDGE_CURVE('',#495,#499,#492,.T.);
#510=EDGE_CURVE('',#499,#500,#474,.T.);
#512=EDGE_CURVE('',#496,#500,#483,.T.);
#516=ADVANCED_FACE('',(#515),#505,.T.);
#523=EDGE_CURVE('',#496,#495,#479,.T.);
#527=ADVANCED_FACE('',(#526),#521,.F.);
#535=EDGE_CURVE('',#500,#499,#488,.T.);
#540=ADVANCED_FACE('',(#539),#532,.T.);
#550=ADVANCED_FACE('',(#549),#545,.F.);
#553=(LENGTH_UNIT()NAMED_UNIT(*)SI_UNIT(.MILLI.,.METRE.));
#555=(NAMED_UNIT(*)PLANE_ANGLE_UNIT()SI_UNIT($,.RADIAN.));
#558=(NAMED_UNIT(*)SI_UNIT($,.STERADIAN.)SOLID_ANGLE_UNIT());
#560=(GEOMETRIC_REPRESENTATION_CONTEXT(3)GLOBAL_UNCERTAINTY_ASSIGNED_CONTEXT((
#559))GLOBAL_UNIT_ASSIGNED_CONTEXT((#553,#557,#558))REPRESENTATION_CONTEXT
('ID1','3'));
#561=ADVANCED_BREP_SHAPE_REPRESENTATION('',(#144,#288,#376,#464,#552),#560);
#568=PRODUCT_DEFINITION('design','',#567,#564);
#569=PRODUCT_DEFINITION_SHAPE('','SHAPE FOR 2056-XX-A.',#568);
#570=SHAPE_DEFINITION_REPRESENTATION(#569,#561);
ENDSEC;
END-ISO-10303-21;
