ISO-10303-21;
HEADER;
FILE_DESCRIPTION((''),'2;1');
FILE_NAME('2063-XX-A','2012-08-09T',('ryans'),('Bourns, Inc.'),
'PRO/ENGINEER BY PARAMETRIC TECHNOLOGY CORPORATION, 2010100',
'PRO/ENGINEER BY PARAMETRIC TECHNOLOGY CORPORATION, 2010100','');
FILE_SCHEMA(('CONFIG_CONTROL_DESIGN'));
ENDSEC;
DATA;
#1=CARTESIAN_POINT('',(0.E0,8.55E0,0.E0));
#2=DIRECTION('',(0.E0,1.E0,0.E0));
#3=DIRECTION('',(0.E0,0.E0,-1.E0));
#4=AXIS2_PLACEMENT_3D('',#1,#2,#3);
#6=CARTESIAN_POINT('',(0.E0,8.55E0,0.E0));
#7=DIRECTION('',(0.E0,-1.E0,0.E0));
#8=DIRECTION('',(0.E0,0.E0,-1.E0));
#9=AXIS2_PLACEMENT_3D('',#6,#7,#8);
#11=CARTESIAN_POINT('',(0.E0,8.05E0,0.E0));
#12=DIRECTION('',(0.E0,-1.E0,0.E0));
#13=DIRECTION('',(0.E0,0.E0,1.E0));
#14=AXIS2_PLACEMENT_3D('',#11,#12,#13);
#16=CARTESIAN_POINT('',(0.E0,8.05E0,0.E0));
#17=DIRECTION('',(0.E0,1.E0,0.E0));
#18=DIRECTION('',(0.E0,0.E0,-1.E0));
#19=AXIS2_PLACEMENT_3D('',#16,#17,#18);
#21=CARTESIAN_POINT('',(0.E0,8.55E0,0.E0));
#22=DIRECTION('',(0.E0,1.E0,0.E0));
#23=DIRECTION('',(0.E0,0.E0,-1.E0));
#24=AXIS2_PLACEMENT_3D('',#21,#22,#23);
#26=CARTESIAN_POINT('',(0.E0,8.05E0,0.E0));
#27=DIRECTION('',(0.E0,1.E0,0.E0));
#28=DIRECTION('',(0.E0,0.E0,1.E0));
#29=AXIS2_PLACEMENT_3D('',#26,#27,#28);
#31=DIRECTION('',(0.E0,-5.100617183314E-1,8.601378049434E-1));
#32=VECTOR('',#31,9.802735277520E-1);
#33=CARTESIAN_POINT('',(0.E0,8.55E0,-4.4E0));
#34=LINE('',#33,#32);
#35=CARTESIAN_POINT('',(0.E0,8.55E0,0.E0));
#36=DIRECTION('',(0.E0,-1.E0,0.E0));
#37=DIRECTION('',(0.E0,0.E0,-1.E0));
#38=AXIS2_PLACEMENT_3D('',#35,#36,#37);
#40=DIRECTION('',(0.E0,-5.100617183314E-1,-8.601378049434E-1));
#41=VECTOR('',#40,9.802735277520E-1);
#42=CARTESIAN_POINT('',(0.E0,8.55E0,4.4E0));
#43=LINE('',#42,#41);
#44=CARTESIAN_POINT('',(0.E0,8.05E0,0.E0));
#45=DIRECTION('',(0.E0,-1.E0,0.E0));
#46=DIRECTION('',(0.E0,0.E0,-1.E0));
#47=AXIS2_PLACEMENT_3D('',#44,#45,#46);
#49=DIRECTION('',(0.E0,1.E0,0.E0));
#50=VECTOR('',#49,5.E-1);
#51=CARTESIAN_POINT('',(0.E0,8.05E0,5.9E0));
#52=LINE('',#51,#50);
#53=DIRECTION('',(0.E0,1.E0,0.E0));
#54=VECTOR('',#53,5.E-1);
#55=CARTESIAN_POINT('',(0.E0,8.05E0,-5.9E0));
#56=LINE('',#55,#54);
#57=CARTESIAN_POINT('',(0.E0,8.55E0,-5.9E0));
#58=CARTESIAN_POINT('',(0.E0,8.55E0,5.9E0));
#59=VERTEX_POINT('',#57);
#60=VERTEX_POINT('',#58);
#61=CARTESIAN_POINT('',(0.E0,8.55E0,-4.4E0));
#62=CARTESIAN_POINT('',(0.E0,8.55E0,4.4E0));
#63=VERTEX_POINT('',#61);
#64=VERTEX_POINT('',#62);
#65=CARTESIAN_POINT('',(0.E0,8.05E0,-3.556829679595E0));
#66=CARTESIAN_POINT('',(0.E0,8.05E0,3.556829679595E0));
#67=VERTEX_POINT('',#65);
#68=VERTEX_POINT('',#66);
#69=CARTESIAN_POINT('',(0.E0,8.05E0,5.9E0));
#70=CARTESIAN_POINT('',(0.E0,8.05E0,-5.9E0));
#71=VERTEX_POINT('',#69);
#72=VERTEX_POINT('',#70);
#73=CARTESIAN_POINT('',(0.E0,8.55E0,0.E0));
#74=DIRECTION('',(0.E0,1.E0,0.E0));
#75=DIRECTION('',(0.E0,0.E0,-1.E0));
#76=AXIS2_PLACEMENT_3D('',#73,#74,#75);
#77=PLANE('',#76);
#79=ORIENTED_EDGE('',*,*,#78,.F.);
#81=ORIENTED_EDGE('',*,*,#80,.T.);
#82=EDGE_LOOP('',(#79,#81));
#83=FACE_OUTER_BOUND('',#82,.F.);
#85=ORIENTED_EDGE('',*,*,#84,.F.);
#87=ORIENTED_EDGE('',*,*,#86,.T.);
#88=EDGE_LOOP('',(#85,#87));
#89=FACE_BOUND('',#88,.F.);
#91=CARTESIAN_POINT('',(0.E0,0.E0,0.E0));
#92=DIRECTION('',(0.E0,1.E0,0.E0));
#93=DIRECTION('',(0.E0,0.E0,-1.E0));
#94=AXIS2_PLACEMENT_3D('',#91,#92,#93);
#95=CYLINDRICAL_SURFACE('',#94,5.9E0);
#97=ORIENTED_EDGE('',*,*,#96,.T.);
#99=ORIENTED_EDGE('',*,*,#98,.T.);
#100=ORIENTED_EDGE('',*,*,#78,.T.);
#102=ORIENTED_EDGE('',*,*,#101,.F.);
#103=EDGE_LOOP('',(#97,#99,#100,#102));
#104=FACE_OUTER_BOUND('',#103,.F.);
#106=CARTESIAN_POINT('',(5.9E0,8.05E0,-7.08E0));
#107=DIRECTION('',(0.E0,1.E0,0.E0));
#108=DIRECTION('',(-1.E0,0.E0,0.E0));
#109=AXIS2_PLACEMENT_3D('',#106,#107,#108);
#110=PLANE('',#109);
#111=ORIENTED_EDGE('',*,*,#96,.F.);
#113=ORIENTED_EDGE('',*,*,#112,.F.);
#114=EDGE_LOOP('',(#111,#113));
#115=FACE_OUTER_BOUND('',#114,.F.);
#117=ORIENTED_EDGE('',*,*,#116,.F.);
#119=ORIENTED_EDGE('',*,*,#118,.F.);
#120=EDGE_LOOP('',(#117,#119));
#121=FACE_BOUND('',#120,.F.);
#123=CARTESIAN_POINT('',(0.E0,8.3E0,0.E0));
#124=DIRECTION('',(0.E0,1.E0,0.E0));
#125=DIRECTION('',(0.E0,0.E0,-1.E0));
#126=AXIS2_PLACEMENT_3D('',#123,#124,#125);
#127=CONICAL_SURFACE('',#126,3.978414839798E0,5.933205914349E1);
#128=ORIENTED_EDGE('',*,*,#116,.T.);
#130=ORIENTED_EDGE('',*,*,#129,.F.);
#131=ORIENTED_EDGE('',*,*,#86,.F.);
#133=ORIENTED_EDGE('',*,*,#132,.T.);
#134=EDGE_LOOP('',(#128,#130,#131,#133));
#135=FACE_OUTER_BOUND('',#134,.F.);
#137=CARTESIAN_POINT('',(0.E0,8.3E0,0.E0));
#138=DIRECTION('',(0.E0,1.E0,0.E0));
#139=DIRECTION('',(0.E0,0.E0,-1.E0));
#140=AXIS2_PLACEMENT_3D('',#137,#138,#139);
#141=CONICAL_SURFACE('',#140,3.978414839798E0,5.933205914349E1);
#142=ORIENTED_EDGE('',*,*,#118,.T.);
#143=ORIENTED_EDGE('',*,*,#132,.F.);
#144=ORIENTED_EDGE('',*,*,#84,.T.);
#145=ORIENTED_EDGE('',*,*,#129,.T.);
#146=EDGE_LOOP('',(#142,#143,#144,#145));
#147=FACE_OUTER_BOUND('',#146,.F.);
#149=CARTESIAN_POINT('',(0.E0,0.E0,0.E0));
#150=DIRECTION('',(0.E0,1.E0,0.E0));
#151=DIRECTION('',(0.E0,0.E0,-1.E0));
#152=AXIS2_PLACEMENT_3D('',#149,#150,#151);
#153=CYLINDRICAL_SURFACE('',#152,5.9E0);
#154=ORIENTED_EDGE('',*,*,#112,.T.);
#155=ORIENTED_EDGE('',*,*,#101,.T.);
#156=ORIENTED_EDGE('',*,*,#80,.F.);
#157=ORIENTED_EDGE('',*,*,#98,.F.);
#158=EDGE_LOOP('',(#154,#155,#156,#157));
#159=FACE_OUTER_BOUND('',#158,.F.);
#161=CLOSED_SHELL('',(#90,#105,#122,#136,#148,#160));
#162=MANIFOLD_SOLID_BREP('',#161);
#163=CARTESIAN_POINT('',(0.E0,-8.03E0,0.E0));
#164=DIRECTION('',(0.E0,1.E0,0.E0));
#165=DIRECTION('',(0.E0,0.E0,-1.E0));
#166=AXIS2_PLACEMENT_3D('',#163,#164,#165);
#168=CARTESIAN_POINT('',(0.E0,-7.6605E0,0.E0));
#169=DIRECTION('',(0.E0,1.E0,0.E0));
#170=DIRECTION('',(0.E0,0.E0,-1.E0));
#171=AXIS2_PLACEMENT_3D('',#168,#169,#170);
#173=CARTESIAN_POINT('',(0.E0,-8.03E0,0.E0));
#174=DIRECTION('',(0.E0,1.E0,0.E0));
#175=DIRECTION('',(0.E0,0.E0,1.E0));
#176=AXIS2_PLACEMENT_3D('',#173,#174,#175);
#178=DIRECTION('',(0.E0,-5.100617183314E-1,-8.601378049434E-1));
#179=VECTOR('',#178,7.244221370087E-1);
#180=CARTESIAN_POINT('',(0.E0,-7.6605E0,-2.9E0));
#181=LINE('',#180,#179);
#182=CARTESIAN_POINT('',(0.E0,-7.6605E0,0.E0));
#183=DIRECTION('',(0.E0,-1.E0,0.E0));
#184=DIRECTION('',(0.E0,0.E0,-1.E0));
#185=AXIS2_PLACEMENT_3D('',#182,#183,#184);
#187=DIRECTION('',(0.E0,-5.100617183314E-1,8.601378049434E-1));
#188=VECTOR('',#187,7.244221370087E-1);
#189=CARTESIAN_POINT('',(0.E0,-7.6605E0,2.9E0));
#190=LINE('',#189,#188);
#191=CARTESIAN_POINT('',(0.E0,8.03E0,0.E0));
#192=DIRECTION('',(0.E0,1.E0,0.E0));
#193=DIRECTION('',(0.E0,0.E0,-1.E0));
#194=AXIS2_PLACEMENT_3D('',#191,#192,#193);
#196=CARTESIAN_POINT('',(0.E0,-8.03E0,0.E0));
#197=DIRECTION('',(0.E0,-1.E0,0.E0));
#198=DIRECTION('',(0.E0,0.E0,1.E0));
#199=AXIS2_PLACEMENT_3D('',#196,#197,#198);
#201=CARTESIAN_POINT('',(0.E0,8.03E0,0.E0));
#202=DIRECTION('',(0.E0,1.E0,0.E0));
#203=DIRECTION('',(0.E0,0.E0,-1.E0));
#204=AXIS2_PLACEMENT_3D('',#201,#202,#203);
#206=CARTESIAN_POINT('',(0.E0,8.03E0,0.E0));
#207=DIRECTION('',(0.E0,1.E0,0.E0));
#208=DIRECTION('',(0.E0,0.E0,1.E0));
#209=AXIS2_PLACEMENT_3D('',#206,#207,#208);
#211=DIRECTION('',(0.E0,-5.100617183314E-1,-8.601378049434E-1));
#212=VECTOR('',#211,7.244221370087E-1);
#213=CARTESIAN_POINT('',(0.E0,8.03E0,3.523102866779E0));
#214=LINE('',#213,#212);
#215=DIRECTION('',(0.E0,-5.100617183314E-1,8.601378049434E-1));
#216=VECTOR('',#215,7.244221370087E-1);
#217=CARTESIAN_POINT('',(0.E0,8.03E0,-3.523102866779E0));
#218=LINE('',#217,#216);
#219=CARTESIAN_POINT('',(0.E0,7.6605E0,0.E0));
#220=DIRECTION('',(0.E0,-1.E0,0.E0));
#221=DIRECTION('',(0.E0,0.E0,-1.E0));
#222=AXIS2_PLACEMENT_3D('',#219,#220,#221);
#224=CARTESIAN_POINT('',(0.E0,7.6605E0,0.E0));
#225=DIRECTION('',(0.E0,1.E0,0.E0));
#226=DIRECTION('',(0.E0,0.E0,-1.E0));
#227=AXIS2_PLACEMENT_3D('',#224,#225,#226);
#229=CARTESIAN_POINT('',(0.E0,8.03E0,0.E0));
#230=DIRECTION('',(0.E0,1.E0,0.E0));
#231=DIRECTION('',(0.E0,0.E0,1.E0));
#232=AXIS2_PLACEMENT_3D('',#229,#230,#231);
#234=DIRECTION('',(0.E0,1.E0,0.E0));
#235=VECTOR('',#234,1.606E1);
#236=CARTESIAN_POINT('',(0.E0,-8.03E0,-5.9E0));
#237=LINE('',#236,#235);
#238=CARTESIAN_POINT('',(0.E0,-8.03E0,0.E0));
#239=DIRECTION('',(0.E0,-1.E0,0.E0));
#240=DIRECTION('',(0.E0,0.E0,-1.E0));
#241=AXIS2_PLACEMENT_3D('',#238,#239,#240);
#243=DIRECTION('',(0.E0,1.E0,0.E0));
#244=VECTOR('',#243,1.606E1);
#245=CARTESIAN_POINT('',(0.E0,-8.03E0,5.9E0));
#246=LINE('',#245,#244);
#247=CARTESIAN_POINT('',(0.E0,7.6605E0,-2.9E0));
#248=CARTESIAN_POINT('',(0.E0,7.6605E0,2.9E0));
#249=VERTEX_POINT('',#247);
#250=VERTEX_POINT('',#248);
#251=CARTESIAN_POINT('',(0.E0,-7.6605E0,-2.9E0));
#252=CARTESIAN_POINT('',(0.E0,-7.6605E0,2.9E0));
#253=VERTEX_POINT('',#251);
#254=VERTEX_POINT('',#252);
#255=CARTESIAN_POINT('',(0.E0,8.03E0,-3.523102866779E0));
#256=CARTESIAN_POINT('',(0.E0,8.03E0,3.523102866779E0));
#257=VERTEX_POINT('',#255);
#258=VERTEX_POINT('',#256);
#259=CARTESIAN_POINT('',(0.E0,-8.03E0,-3.523102866779E0));
#260=CARTESIAN_POINT('',(0.E0,-8.03E0,3.523102866779E0));
#261=VERTEX_POINT('',#259);
#262=VERTEX_POINT('',#260);
#263=CARTESIAN_POINT('',(0.E0,8.03E0,-5.9E0));
#264=CARTESIAN_POINT('',(0.E0,8.03E0,5.9E0));
#265=VERTEX_POINT('',#263);
#266=VERTEX_POINT('',#264);
#267=CARTESIAN_POINT('',(0.E0,-8.03E0,5.9E0));
#268=CARTESIAN_POINT('',(0.E0,-8.03E0,-5.9E0));
#269=VERTEX_POINT('',#267);
#270=VERTEX_POINT('',#268);
#271=CARTESIAN_POINT('',(5.9E0,-8.03E0,-7.08E0));
#272=DIRECTION('',(0.E0,1.E0,0.E0));
#273=DIRECTION('',(-1.E0,0.E0,0.E0));
#274=AXIS2_PLACEMENT_3D('',#271,#272,#273);
#275=PLANE('',#274);
#277=ORIENTED_EDGE('',*,*,#276,.F.);
#279=ORIENTED_EDGE('',*,*,#278,.F.);
#280=EDGE_LOOP('',(#277,#279));
#281=FACE_OUTER_BOUND('',#280,.F.);
#283=ORIENTED_EDGE('',*,*,#282,.F.);
#285=ORIENTED_EDGE('',*,*,#284,.F.);
#286=EDGE_LOOP('',(#283,#285));
#287=FACE_BOUND('',#286,.F.);
#289=CARTESIAN_POINT('',(0.E0,-7.84525E0,0.E0));
#290=DIRECTION('',(0.E0,-1.E0,0.E0));
#291=DIRECTION('',(0.E0,0.E0,1.E0));
#292=AXIS2_PLACEMENT_3D('',#289,#290,#291);
#293=CONICAL_SURFACE('',#292,3.211551433390E0,5.933205914349E1);
#294=ORIENTED_EDGE('',*,*,#282,.T.);
#296=ORIENTED_EDGE('',*,*,#295,.F.);
#298=ORIENTED_EDGE('',*,*,#297,.F.);
#300=ORIENTED_EDGE('',*,*,#299,.T.);
#301=EDGE_LOOP('',(#294,#296,#298,#300));
#302=FACE_OUTER_BOUND('',#301,.F.);
#304=CARTESIAN_POINT('',(0.E0,-7.84525E0,0.E0));
#305=DIRECTION('',(0.E0,-1.E0,0.E0));
#306=DIRECTION('',(0.E0,0.E0,1.E0));
#307=AXIS2_PLACEMENT_3D('',#304,#305,#306);
#308=CONICAL_SURFACE('',#307,3.211551433390E0,5.933205914349E1);
#309=ORIENTED_EDGE('',*,*,#284,.T.);
#310=ORIENTED_EDGE('',*,*,#299,.F.);
#312=ORIENTED_EDGE('',*,*,#311,.T.);
#313=ORIENTED_EDGE('',*,*,#295,.T.);
#314=EDGE_LOOP('',(#309,#310,#312,#313));
#315=FACE_OUTER_BOUND('',#314,.F.);
#317=CARTESIAN_POINT('',(0.E0,-7.6605E0,0.E0));
#318=DIRECTION('',(0.E0,1.E0,0.E0));
#319=DIRECTION('',(0.E0,0.E0,-1.E0));
#320=AXIS2_PLACEMENT_3D('',#317,#318,#319);
#321=PLANE('',#320);
#322=ORIENTED_EDGE('',*,*,#311,.F.);
#323=ORIENTED_EDGE('',*,*,#297,.T.);
#324=EDGE_LOOP('',(#322,#323));
#325=FACE_OUTER_BOUND('',#324,.F.);
#327=CARTESIAN_POINT('',(0.E0,0.E0,0.E0));
#328=DIRECTION('',(0.E0,1.E0,0.E0));
#329=DIRECTION('',(0.E0,0.E0,-1.E0));
#330=AXIS2_PLACEMENT_3D('',#327,#328,#329);
#331=CYLINDRICAL_SURFACE('',#330,5.9E0);
#333=ORIENTED_EDGE('',*,*,#332,.T.);
#335=ORIENTED_EDGE('',*,*,#334,.F.);
#336=ORIENTED_EDGE('',*,*,#276,.T.);
#338=ORIENTED_EDGE('',*,*,#337,.T.);
#339=EDGE_LOOP('',(#333,#335,#336,#338));
#340=FACE_OUTER_BOUND('',#339,.F.);
#342=CARTESIAN_POINT('',(-5.9E0,8.03E0,-7.08E0));
#343=DIRECTION('',(0.E0,-1.E0,0.E0));
#344=DIRECTION('',(1.E0,0.E0,0.E0));
#345=AXIS2_PLACEMENT_3D('',#342,#343,#344);
#346=PLANE('',#345);
#347=ORIENTED_EDGE('',*,*,#332,.F.);
#349=ORIENTED_EDGE('',*,*,#348,.F.);
#350=EDGE_LOOP('',(#347,#349));
#351=FACE_OUTER_BOUND('',#350,.F.);
#353=ORIENTED_EDGE('',*,*,#352,.T.);
#355=ORIENTED_EDGE('',*,*,#354,.T.);
#356=EDGE_LOOP('',(#353,#355));
#357=FACE_BOUND('',#356,.F.);
#359=CARTESIAN_POINT('',(0.E0,7.84525E0,0.E0));
#360=DIRECTION('',(0.E0,1.E0,0.E0));
#361=DIRECTION('',(0.E0,0.E0,-1.E0));
#362=AXIS2_PLACEMENT_3D('',#359,#360,#361);
#363=CONICAL_SURFACE('',#362,3.211551433390E0,5.933205914349E1);
#364=ORIENTED_EDGE('',*,*,#352,.F.);
#366=ORIENTED_EDGE('',*,*,#365,.T.);
#368=ORIENTED_EDGE('',*,*,#367,.T.);
#370=ORIENTED_EDGE('',*,*,#369,.F.);
#371=EDGE_LOOP('',(#364,#366,#368,#370));
#372=FACE_OUTER_BOUND('',#371,.F.);
#374=CARTESIAN_POINT('',(0.E0,7.84525E0,0.E0));
#375=DIRECTION('',(0.E0,1.E0,0.E0));
#376=DIRECTION('',(0.E0,0.E0,-1.E0));
#377=AXIS2_PLACEMENT_3D('',#374,#375,#376);
#378=CONICAL_SURFACE('',#377,3.211551433390E0,5.933205914349E1);
#379=ORIENTED_EDGE('',*,*,#354,.F.);
#380=ORIENTED_EDGE('',*,*,#369,.T.);
#382=ORIENTED_EDGE('',*,*,#381,.F.);
#383=ORIENTED_EDGE('',*,*,#365,.F.);
#384=EDGE_LOOP('',(#379,#380,#382,#383));
#385=FACE_OUTER_BOUND('',#384,.F.);
#387=CARTESIAN_POINT('',(0.E0,7.6605E0,0.E0));
#388=DIRECTION('',(0.E0,1.E0,0.E0));
#389=DIRECTION('',(0.E0,0.E0,-1.E0));
#390=AXIS2_PLACEMENT_3D('',#387,#388,#389);
#391=PLANE('',#390);
#392=ORIENTED_EDGE('',*,*,#381,.T.);
#393=ORIENTED_EDGE('',*,*,#367,.F.);
#394=EDGE_LOOP('',(#392,#393));
#395=FACE_OUTER_BOUND('',#394,.F.);
#397=CARTESIAN_POINT('',(0.E0,0.E0,0.E0));
#398=DIRECTION('',(0.E0,1.E0,0.E0));
#399=DIRECTION('',(0.E0,0.E0,-1.E0));
#400=AXIS2_PLACEMENT_3D('',#397,#398,#399);
#401=CYLINDRICAL_SURFACE('',#400,5.9E0);
#402=ORIENTED_EDGE('',*,*,#348,.T.);
#403=ORIENTED_EDGE('',*,*,#337,.F.);
#404=ORIENTED_EDGE('',*,*,#278,.T.);
#405=ORIENTED_EDGE('',*,*,#334,.T.);
#406=EDGE_LOOP('',(#402,#403,#404,#405));
#407=FACE_OUTER_BOUND('',#406,.F.);
#409=CLOSED_SHELL('',(#288,#303,#316,#326,#341,#358,#373,#386,#396,#408));
#410=MANIFOLD_SOLID_BREP('',#409);
#411=CARTESIAN_POINT('',(0.E0,-8.05E0,0.E0));
#412=DIRECTION('',(0.E0,1.E0,0.E0));
#413=DIRECTION('',(0.E0,0.E0,-1.E0));
#414=AXIS2_PLACEMENT_3D('',#411,#412,#413);
#416=CARTESIAN_POINT('',(0.E0,-8.05E0,0.E0));
#417=DIRECTION('',(0.E0,1.E0,0.E0));
#418=DIRECTION('',(0.E0,0.E0,1.E0));
#419=AXIS2_PLACEMENT_3D('',#416,#417,#418);
#421=DIRECTION('',(0.E0,-5.100617183314E-1,8.601378049434E-1));
#422=VECTOR('',#421,9.802735277520E-1);
#423=CARTESIAN_POINT('',(0.E0,-8.05E0,3.556829679595E0));
#424=LINE('',#423,#422);
#425=DIRECTION('',(0.E0,-5.100617183314E-1,-8.601378049434E-1));
#426=VECTOR('',#425,9.802735277520E-1);
#427=CARTESIAN_POINT('',(0.E0,-8.05E0,-3.556829679595E0));
#428=LINE('',#427,#426);
#429=CARTESIAN_POINT('',(0.E0,-8.55E0,0.E0));
#430=DIRECTION('',(0.E0,1.E0,0.E0));
#431=DIRECTION('',(0.E0,0.E0,-1.E0));
#432=AXIS2_PLACEMENT_3D('',#429,#430,#431);
#434=CARTESIAN_POINT('',(0.E0,-8.55E0,0.E0));
#435=DIRECTION('',(0.E0,-1.E0,0.E0));
#436=DIRECTION('',(0.E0,0.E0,-1.E0));
#437=AXIS2_PLACEMENT_3D('',#434,#435,#436);
#439=CARTESIAN_POINT('',(0.E0,-8.05E0,0.E0));
#440=DIRECTION('',(0.E0,1.E0,0.E0));
#441=DIRECTION('',(0.E0,0.E0,1.E0));
#442=AXIS2_PLACEMENT_3D('',#439,#440,#441);
#444=DIRECTION('',(0.E0,1.E0,0.E0));
#445=VECTOR('',#444,5.E-1);
#446=CARTESIAN_POINT('',(0.E0,-8.55E0,-5.9E0));
#447=LINE('',#446,#445);
#448=CARTESIAN_POINT('',(0.E0,-8.55E0,0.E0));
#449=DIRECTION('',(0.E0,-1.E0,0.E0));
#450=DIRECTION('',(0.E0,0.E0,-1.E0));
#451=AXIS2_PLACEMENT_3D('',#448,#449,#450);
#453=DIRECTION('',(0.E0,1.E0,0.E0));
#454=VECTOR('',#453,5.E-1);
#455=CARTESIAN_POINT('',(0.E0,-8.55E0,5.9E0));
#456=LINE('',#455,#454);
#457=CARTESIAN_POINT('',(0.E0,-8.05E0,0.E0));
#458=DIRECTION('',(0.E0,1.E0,0.E0));
#459=DIRECTION('',(0.E0,0.E0,-1.E0));
#460=AXIS2_PLACEMENT_3D('',#457,#458,#459);
#462=CARTESIAN_POINT('',(0.E0,-8.55E0,0.E0));
#463=DIRECTION('',(0.E0,1.E0,0.E0));
#464=DIRECTION('',(0.E0,0.E0,-1.E0));
#465=AXIS2_PLACEMENT_3D('',#462,#463,#464);
#467=CARTESIAN_POINT('',(0.E0,-8.55E0,-4.4E0));
#468=CARTESIAN_POINT('',(0.E0,-8.55E0,4.4E0));
#469=VERTEX_POINT('',#467);
#470=VERTEX_POINT('',#468);
#471=CARTESIAN_POINT('',(0.E0,-8.55E0,-5.9E0));
#472=CARTESIAN_POINT('',(0.E0,-8.55E0,5.9E0));
#473=VERTEX_POINT('',#471);
#474=VERTEX_POINT('',#472);
#475=CARTESIAN_POINT('',(0.E0,-8.05E0,-3.556829679595E0));
#476=CARTESIAN_POINT('',(0.E0,-8.05E0,3.556829679595E0));
#477=VERTEX_POINT('',#475);
#478=VERTEX_POINT('',#476);
#479=CARTESIAN_POINT('',(0.E0,-8.05E0,-5.9E0));
#480=CARTESIAN_POINT('',(0.E0,-8.05E0,5.9E0));
#481=VERTEX_POINT('',#479);
#482=VERTEX_POINT('',#480);
#483=CARTESIAN_POINT('',(0.E0,-8.3E0,0.E0));
#484=DIRECTION('',(0.E0,-1.E0,0.E0));
#485=DIRECTION('',(0.E0,0.E0,1.E0));
#486=AXIS2_PLACEMENT_3D('',#483,#484,#485);
#487=CONICAL_SURFACE('',#486,3.978414839798E0,5.933205914349E1);
#489=ORIENTED_EDGE('',*,*,#488,.F.);
#491=ORIENTED_EDGE('',*,*,#490,.T.);
#493=ORIENTED_EDGE('',*,*,#492,.T.);
#495=ORIENTED_EDGE('',*,*,#494,.F.);
#496=EDGE_LOOP('',(#489,#491,#493,#495));
#497=FACE_OUTER_BOUND('',#496,.F.);
#499=CARTESIAN_POINT('',(-5.9E0,-8.05E0,-7.08E0));
#500=DIRECTION('',(0.E0,-1.E0,0.E0));
#501=DIRECTION('',(1.E0,0.E0,0.E0));
#502=AXIS2_PLACEMENT_3D('',#499,#500,#501);
#503=PLANE('',#502);
#505=ORIENTED_EDGE('',*,*,#504,.F.);
#507=ORIENTED_EDGE('',*,*,#506,.F.);
#508=EDGE_LOOP('',(#505,#507));
#509=FACE_OUTER_BOUND('',#508,.F.);
#510=ORIENTED_EDGE('',*,*,#488,.T.);
#512=ORIENTED_EDGE('',*,*,#511,.T.);
#513=EDGE_LOOP('',(#510,#512));
#514=FACE_BOUND('',#513,.F.);
#516=CARTESIAN_POINT('',(0.E0,-8.3E0,0.E0));
#517=DIRECTION('',(0.E0,-1.E0,0.E0));
#518=DIRECTION('',(0.E0,0.E0,1.E0));
#519=AXIS2_PLACEMENT_3D('',#516,#517,#518);
#520=CONICAL_SURFACE('',#519,3.978414839798E0,5.933205914349E1);
#521=ORIENTED_EDGE('',*,*,#511,.F.);
#522=ORIENTED_EDGE('',*,*,#494,.T.);
#524=ORIENTED_EDGE('',*,*,#523,.F.);
#525=ORIENTED_EDGE('',*,*,#490,.F.);
#526=EDGE_LOOP('',(#521,#522,#524,#525));
#527=FACE_OUTER_BOUND('',#526,.F.);
#529=CARTESIAN_POINT('',(0.E0,-8.55E0,0.E0));
#530=DIRECTION('',(0.E0,1.E0,0.E0));
#531=DIRECTION('',(0.E0,0.E0,-1.E0));
#532=AXIS2_PLACEMENT_3D('',#529,#530,#531);
#533=PLANE('',#532);
#535=ORIENTED_EDGE('',*,*,#534,.F.);
#537=ORIENTED_EDGE('',*,*,#536,.T.);
#538=EDGE_LOOP('',(#535,#537));
#539=FACE_OUTER_BOUND('',#538,.F.);
#540=ORIENTED_EDGE('',*,*,#492,.F.);
#541=ORIENTED_EDGE('',*,*,#523,.T.);
#542=EDGE_LOOP('',(#540,#541));
#543=FACE_BOUND('',#542,.F.);
#545=CARTESIAN_POINT('',(0.E0,0.E0,0.E0));
#546=DIRECTION('',(0.E0,1.E0,0.E0));
#547=DIRECTION('',(0.E0,0.E0,-1.E0));
#548=AXIS2_PLACEMENT_3D('',#545,#546,#547);
#549=CYLINDRICAL_SURFACE('',#548,5.9E0);
#550=ORIENTED_EDGE('',*,*,#506,.T.);
#552=ORIENTED_EDGE('',*,*,#551,.F.);
#553=ORIENTED_EDGE('',*,*,#534,.T.);
#555=ORIENTED_EDGE('',*,*,#554,.T.);
#556=EDGE_LOOP('',(#550,#552,#553,#555));
#557=FACE_OUTER_BOUND('',#556,.F.);
#559=CARTESIAN_POINT('',(0.E0,0.E0,0.E0));
#560=DIRECTION('',(0.E0,1.E0,0.E0));
#561=DIRECTION('',(0.E0,0.E0,-1.E0));
#562=AXIS2_PLACEMENT_3D('',#559,#560,#561);
#563=CYLINDRICAL_SURFACE('',#562,5.9E0);
#564=ORIENTED_EDGE('',*,*,#504,.T.);
#565=ORIENTED_EDGE('',*,*,#554,.F.);
#566=ORIENTED_EDGE('',*,*,#536,.F.);
#567=ORIENTED_EDGE('',*,*,#551,.T.);
#568=EDGE_LOOP('',(#564,#565,#566,#567));
#569=FACE_OUTER_BOUND('',#568,.F.);
#571=CLOSED_SHELL('',(#498,#515,#528,#544,#558,#570));
#572=MANIFOLD_SOLID_BREP('',#571);
#574=DIMENSIONAL_EXPONENTS(0.E0,0.E0,0.E0,0.E0,0.E0,0.E0,0.E0);
#576=PLANE_ANGLE_MEASURE_WITH_UNIT(PLANE_ANGLE_MEASURE(1.745329251994E-2),#575);
#577=(CONVERSION_BASED_UNIT('DEGREE',#576)NAMED_UNIT(*)PLANE_ANGLE_UNIT());
#579=UNCERTAINTY_MEASURE_WITH_UNIT(LENGTH_MEASURE(9.955964411256E-4),#573,
'closure',
'Maximum model space distance between geometric entities at asserted connectivities');
#582=APPLICATION_CONTEXT(
'CONFIGURATION CONTROLLED 3D DESIGNS OF MECHANICAL PARTS AND ASSEMBLIES');
#583=APPLICATION_PROTOCOL_DEFINITION('international standard',
'config_control_design',1994,#582);
#584=DESIGN_CONTEXT('',#582,'design');
#585=MECHANICAL_CONTEXT('',#582,'mechanical');
#586=PRODUCT('2063-XX-A','2063-XX-A','NOT SPECIFIED',(#585));
#587=PRODUCT_DEFINITION_FORMATION_WITH_SPECIFIED_SOURCE('3','LAST_VERSION',#586,
.MADE.);
#591=PRODUCT_CATEGORY('part','');
#592=PRODUCT_RELATED_PRODUCT_CATEGORY('detail','',(#586));
#593=PRODUCT_CATEGORY_RELATIONSHIP('','',#591,#592);
#594=SECURITY_CLASSIFICATION_LEVEL('unclassified');
#595=SECURITY_CLASSIFICATION('','',#594);
#596=CC_DESIGN_SECURITY_CLASSIFICATION(#595,(#587));
#597=APPROVAL_STATUS('approved');
#598=APPROVAL(#597,'');
#599=CC_DESIGN_APPROVAL(#598,(#595,#587,#588));
#600=CALENDAR_DATE(112,9,8);
#601=COORDINATED_UNIVERSAL_TIME_OFFSET(7,0,.BEHIND.);
#602=LOCAL_TIME(8,46,1.E0,#601);
#603=DATE_AND_TIME(#600,#602);
#604=APPROVAL_DATE_TIME(#603,#598);
#605=DATE_TIME_ROLE('creation_date');
#606=CC_DESIGN_DATE_AND_TIME_ASSIGNMENT(#603,#605,(#588));
#607=DATE_TIME_ROLE('classification_date');
#608=CC_DESIGN_DATE_AND_TIME_ASSIGNMENT(#603,#607,(#595));
#609=PERSON('UNSPECIFIED','UNSPECIFIED',$,$,$,$);
#610=ORGANIZATION('UNSPECIFIED','UNSPECIFIED','UNSPECIFIED');
#611=PERSON_AND_ORGANIZATION(#609,#610);
#612=APPROVAL_ROLE('approver');
#613=APPROVAL_PERSON_ORGANIZATION(#611,#598,#612);
#614=PERSON_AND_ORGANIZATION_ROLE('creator');
#615=CC_DESIGN_PERSON_AND_ORGANIZATION_ASSIGNMENT(#611,#614,(#587,#588));
#616=PERSON_AND_ORGANIZATION_ROLE('design_supplier');
#617=CC_DESIGN_PERSON_AND_ORGANIZATION_ASSIGNMENT(#611,#616,(#587));
#618=PERSON_AND_ORGANIZATION_ROLE('classification_officer');
#619=CC_DESIGN_PERSON_AND_ORGANIZATION_ASSIGNMENT(#611,#618,(#595));
#620=PERSON_AND_ORGANIZATION_ROLE('design_owner');
#621=CC_DESIGN_PERSON_AND_ORGANIZATION_ASSIGNMENT(#611,#620,(#586));
#5=CIRCLE('',#4,5.9E0);
#10=CIRCLE('',#9,5.9E0);
#15=CIRCLE('',#14,5.9E0);
#20=CIRCLE('',#19,3.556829679595E0);
#25=CIRCLE('',#24,4.4E0);
#30=CIRCLE('',#29,3.556829679595E0);
#39=CIRCLE('',#38,4.4E0);
#48=CIRCLE('',#47,5.9E0);
#78=EDGE_CURVE('',#59,#60,#5,.T.);
#80=EDGE_CURVE('',#59,#60,#10,.T.);
#84=EDGE_CURVE('',#63,#64,#39,.T.);
#86=EDGE_CURVE('',#63,#64,#25,.T.);
#90=ADVANCED_FACE('',(#83,#89),#77,.T.);
#96=EDGE_CURVE('',#71,#72,#15,.T.);
#98=EDGE_CURVE('',#72,#59,#56,.T.);
#101=EDGE_CURVE('',#71,#60,#52,.T.);
#105=ADVANCED_FACE('',(#104),#95,.T.);
#112=EDGE_CURVE('',#72,#71,#48,.T.);
#116=EDGE_CURVE('',#67,#68,#20,.T.);
#118=EDGE_CURVE('',#68,#67,#30,.T.);
#122=ADVANCED_FACE('',(#115,#121),#110,.F.);
#129=EDGE_CURVE('',#64,#68,#43,.T.);
#132=EDGE_CURVE('',#63,#67,#34,.T.);
#136=ADVANCED_FACE('',(#135),#127,.F.);
#148=ADVANCED_FACE('',(#147),#141,.F.);
#160=ADVANCED_FACE('',(#159),#153,.T.);
#167=CIRCLE('',#166,3.523102866779E0);
#172=CIRCLE('',#171,2.9E0);
#177=CIRCLE('',#176,3.523102866779E0);
#186=CIRCLE('',#185,2.9E0);
#195=CIRCLE('',#194,5.9E0);
#200=CIRCLE('',#199,5.9E0);
#205=CIRCLE('',#204,3.523102866779E0);
#210=CIRCLE('',#209,3.523102866779E0);
#223=CIRCLE('',#222,2.9E0);
#228=CIRCLE('',#227,2.9E0);
#233=CIRCLE('',#232,5.9E0);
#242=CIRCLE('',#241,5.9E0);
#276=EDGE_CURVE('',#269,#270,#200,.T.);
#278=EDGE_CURVE('',#270,#269,#242,.T.);
#282=EDGE_CURVE('',#261,#262,#167,.T.);
#284=EDGE_CURVE('',#262,#261,#177,.T.);
#288=ADVANCED_FACE('',(#281,#287),#275,.F.);
#295=EDGE_CURVE('',#254,#262,#190,.T.);
#297=EDGE_CURVE('',#253,#254,#172,.T.);
#299=EDGE_CURVE('',#253,#261,#181,.T.);
#303=ADVANCED_FACE('',(#302),#293,.F.);
#311=EDGE_CURVE('',#253,#254,#186,.T.);
#316=ADVANCED_FACE('',(#315),#308,.F.);
#326=ADVANCED_FACE('',(#325),#321,.F.);
#332=EDGE_CURVE('',#265,#266,#195,.T.);
#334=EDGE_CURVE('',#269,#266,#246,.T.);
#337=EDGE_CURVE('',#270,#265,#237,.T.);
#341=ADVANCED_FACE('',(#340),#331,.T.);
#348=EDGE_CURVE('',#266,#265,#233,.T.);
#352=EDGE_CURVE('',#257,#258,#205,.T.);
#354=EDGE_CURVE('',#258,#257,#210,.T.);
#358=ADVANCED_FACE('',(#351,#357),#346,.F.);
#365=EDGE_CURVE('',#257,#249,#218,.T.);
#367=EDGE_CURVE('',#249,#250,#228,.T.);
#369=EDGE_CURVE('',#258,#250,#214,.T.);
#373=ADVANCED_FACE('',(#372),#363,.F.);
#381=EDGE_CURVE('',#249,#250,#223,.T.);
#386=ADVANCED_FACE('',(#385),#378,.F.);
#396=ADVANCED_FACE('',(#395),#391,.T.);
#408=ADVANCED_FACE('',(#407),#401,.T.);
#415=CIRCLE('',#414,3.556829679595E0);
#420=CIRCLE('',#419,3.556829679595E0);
#433=CIRCLE('',#432,4.4E0);
#438=CIRCLE('',#437,4.4E0);
#443=CIRCLE('',#442,5.9E0);
#452=CIRCLE('',#451,5.9E0);
#461=CIRCLE('',#460,5.9E0);
#466=CIRCLE('',#465,5.9E0);
#488=EDGE_CURVE('',#477,#478,#415,.T.);
#490=EDGE_CURVE('',#477,#469,#428,.T.);
#492=EDGE_CURVE('',#469,#470,#433,.T.);
#494=EDGE_CURVE('',#478,#470,#424,.T.);
#498=ADVANCED_FACE('',(#497),#487,.F.);
#504=EDGE_CURVE('',#481,#482,#461,.T.);
#506=EDGE_CURVE('',#482,#481,#443,.T.);
#511=EDGE_CURVE('',#478,#477,#420,.T.);
#515=ADVANCED_FACE('',(#509,#514),#503,.F.);
#523=EDGE_CURVE('',#469,#470,#438,.T.);
#528=ADVANCED_FACE('',(#527),#520,.F.);
#534=EDGE_CURVE('',#473,#474,#452,.T.);
#536=EDGE_CURVE('',#473,#474,#466,.T.);
#544=ADVANCED_FACE('',(#539,#543),#533,.F.);
#551=EDGE_CURVE('',#473,#481,#447,.T.);
#554=EDGE_CURVE('',#474,#482,#456,.T.);
#558=ADVANCED_FACE('',(#557),#549,.T.);
#570=ADVANCED_FACE('',(#569),#563,.T.);
#573=(LENGTH_UNIT()NAMED_UNIT(*)SI_UNIT(.MILLI.,.METRE.));
#575=(NAMED_UNIT(*)PLANE_ANGLE_UNIT()SI_UNIT($,.RADIAN.));
#578=(NAMED_UNIT(*)SI_UNIT($,.STERADIAN.)SOLID_ANGLE_UNIT());
#580=(GEOMETRIC_REPRESENTATION_CONTEXT(3)GLOBAL_UNCERTAINTY_ASSIGNED_CONTEXT((
#579))GLOBAL_UNIT_ASSIGNED_CONTEXT((#573,#577,#578))REPRESENTATION_CONTEXT
('ID1','3'));
#581=ADVANCED_BREP_SHAPE_REPRESENTATION('',(#162,#410,#572),#580);
#588=PRODUCT_DEFINITION('design','',#587,#584);
#589=PRODUCT_DEFINITION_SHAPE('','SHAPE FOR 2063-XX-A.',#588);
#590=SHAPE_DEFINITION_REPRESENTATION(#589,#581);
ENDSEC;
END-ISO-10303-21;
