ISO-10303-21;
HEADER;
FILE_DESCRIPTION((''),'2;1');
FILE_NAME('C','2012-07-23T',('ryans'),('Bourns, Inc.'),
'PRO/ENGINEER BY PARAMETRIC TECHNOLOGY CORPORATION, 2010100',
'PRO/ENGINEER BY PARAMETRIC TECHNOLOGY CORPORATION, 2010100','');
FILE_SCHEMA(('CONFIG_CONTROL_DESIGN'));
ENDSEC;
DATA;
#1=DIRECTION('',(0.E0,0.E0,1.E0));
#2=VECTOR('',#1,4.E0);
#3=CARTESIAN_POINT('',(-4.125E0,0.E0,-2.E0));
#4=LINE('',#3,#2);
#5=DIRECTION('',(1.E0,0.E0,0.E0));
#6=VECTOR('',#5,8.25E0);
#7=CARTESIAN_POINT('',(-4.125E0,0.E0,2.E0));
#8=LINE('',#7,#6);
#9=DIRECTION('',(0.E0,0.E0,-1.E0));
#10=VECTOR('',#9,4.E0);
#11=CARTESIAN_POINT('',(4.125E0,0.E0,2.E0));
#12=LINE('',#11,#10);
#13=DIRECTION('',(-1.E0,0.E0,0.E0));
#14=VECTOR('',#13,8.25E0);
#15=CARTESIAN_POINT('',(4.125E0,0.E0,-2.E0));
#16=LINE('',#15,#14);
#17=DIRECTION('',(0.E0,0.E0,1.E0));
#18=VECTOR('',#17,3.5E0);
#19=CARTESIAN_POINT('',(-5.75E-1,0.E0,-1.75E0));
#20=LINE('',#19,#18);
#21=DIRECTION('',(-1.E0,0.E0,0.E0));
#22=VECTOR('',#21,1.15E0);
#23=CARTESIAN_POINT('',(5.75E-1,0.E0,-1.75E0));
#24=LINE('',#23,#22);
#25=DIRECTION('',(0.E0,0.E0,-1.E0));
#26=VECTOR('',#25,3.5E0);
#27=CARTESIAN_POINT('',(5.75E-1,0.E0,1.75E0));
#28=LINE('',#27,#26);
#29=DIRECTION('',(1.E0,0.E0,0.E0));
#30=VECTOR('',#29,1.15E0);
#31=CARTESIAN_POINT('',(-5.75E-1,0.E0,1.75E0));
#32=LINE('',#31,#30);
#33=DIRECTION('',(0.E0,0.E0,1.E0));
#34=VECTOR('',#33,3.5E0);
#35=CARTESIAN_POINT('',(1.275E0,0.E0,-1.75E0));
#36=LINE('',#35,#34);
#37=DIRECTION('',(-1.E0,0.E0,0.E0));
#38=VECTOR('',#37,2.6E0);
#39=CARTESIAN_POINT('',(3.875E0,0.E0,-1.75E0));
#40=LINE('',#39,#38);
#41=DIRECTION('',(0.E0,0.E0,-1.E0));
#42=VECTOR('',#41,3.323223304703E0);
#43=CARTESIAN_POINT('',(3.875E0,0.E0,1.573223304703E0));
#44=LINE('',#43,#42);
#45=DIRECTION('',(7.071067811865E-1,0.E0,-7.071067811865E-1));
#46=VECTOR('',#45,2.5E-1);
#47=CARTESIAN_POINT('',(3.698223304703E0,0.E0,1.75E0));
#48=LINE('',#47,#46);
#49=DIRECTION('',(1.E0,0.E0,0.E0));
#50=VECTOR('',#49,2.423223304703E0);
#51=CARTESIAN_POINT('',(1.275E0,0.E0,1.75E0));
#52=LINE('',#51,#50);
#53=DIRECTION('',(-1.E0,0.E0,0.E0));
#54=VECTOR('',#53,2.6E0);
#55=CARTESIAN_POINT('',(-1.275E0,0.E0,-1.75E0));
#56=LINE('',#55,#54);
#57=DIRECTION('',(0.E0,0.E0,-1.E0));
#58=VECTOR('',#57,3.5E0);
#59=CARTESIAN_POINT('',(-1.275E0,0.E0,1.75E0));
#60=LINE('',#59,#58);
#61=DIRECTION('',(1.E0,0.E0,0.E0));
#62=VECTOR('',#61,2.6E0);
#63=CARTESIAN_POINT('',(-3.875E0,0.E0,1.75E0));
#64=LINE('',#63,#62);
#65=DIRECTION('',(0.E0,0.E0,1.E0));
#66=VECTOR('',#65,3.5E0);
#67=CARTESIAN_POINT('',(-3.875E0,0.E0,-1.75E0));
#68=LINE('',#67,#66);
#69=DIRECTION('',(0.E0,1.E0,0.E0));
#70=VECTOR('',#69,8.5E-1);
#71=CARTESIAN_POINT('',(-4.125E0,0.E0,-2.E0));
#72=LINE('',#71,#70);
#73=DIRECTION('',(0.E0,1.E0,0.E0));
#74=VECTOR('',#73,8.5E-1);
#75=CARTESIAN_POINT('',(4.125E0,0.E0,-2.E0));
#76=LINE('',#75,#74);
#77=DIRECTION('',(0.E0,1.E0,0.E0));
#78=VECTOR('',#77,8.5E-1);
#79=CARTESIAN_POINT('',(4.125E0,0.E0,2.E0));
#80=LINE('',#79,#78);
#81=DIRECTION('',(0.E0,1.E0,0.E0));
#82=VECTOR('',#81,8.5E-1);
#83=CARTESIAN_POINT('',(-4.125E0,0.E0,2.E0));
#84=LINE('',#83,#82);
#85=DIRECTION('',(0.E0,0.E0,1.E0));
#86=VECTOR('',#85,4.E0);
#87=CARTESIAN_POINT('',(-4.125E0,8.5E-1,-2.E0));
#88=LINE('',#87,#86);
#89=DIRECTION('',(-1.E0,0.E0,0.E0));
#90=VECTOR('',#89,8.25E0);
#91=CARTESIAN_POINT('',(4.125E0,8.5E-1,-2.E0));
#92=LINE('',#91,#90);
#93=DIRECTION('',(0.E0,0.E0,-1.E0));
#94=VECTOR('',#93,4.E0);
#95=CARTESIAN_POINT('',(4.125E0,8.5E-1,2.E0));
#96=LINE('',#95,#94);
#97=DIRECTION('',(1.E0,0.E0,0.E0));
#98=VECTOR('',#97,8.25E0);
#99=CARTESIAN_POINT('',(-4.125E0,8.5E-1,2.E0));
#100=LINE('',#99,#98);
#101=DIRECTION('',(0.E0,-1.E0,0.E0));
#102=VECTOR('',#101,2.5E-2);
#103=CARTESIAN_POINT('',(-5.75E-1,0.E0,-1.75E0));
#104=LINE('',#103,#102);
#105=DIRECTION('',(0.E0,-1.E0,0.E0));
#106=VECTOR('',#105,2.5E-2);
#107=CARTESIAN_POINT('',(-5.75E-1,0.E0,1.75E0));
#108=LINE('',#107,#106);
#109=DIRECTION('',(0.E0,-1.E0,0.E0));
#110=VECTOR('',#109,2.5E-2);
#111=CARTESIAN_POINT('',(5.75E-1,0.E0,1.75E0));
#112=LINE('',#111,#110);
#113=DIRECTION('',(0.E0,-1.E0,0.E0));
#114=VECTOR('',#113,2.5E-2);
#115=CARTESIAN_POINT('',(5.75E-1,0.E0,-1.75E0));
#116=LINE('',#115,#114);
#117=DIRECTION('',(0.E0,0.E0,1.E0));
#118=VECTOR('',#117,3.5E0);
#119=CARTESIAN_POINT('',(-5.75E-1,-2.5E-2,-1.75E0));
#120=LINE('',#119,#118);
#121=DIRECTION('',(1.E0,0.E0,0.E0));
#122=VECTOR('',#121,1.15E0);
#123=CARTESIAN_POINT('',(-5.75E-1,-2.5E-2,1.75E0));
#124=LINE('',#123,#122);
#125=DIRECTION('',(0.E0,0.E0,-1.E0));
#126=VECTOR('',#125,3.5E0);
#127=CARTESIAN_POINT('',(5.75E-1,-2.5E-2,1.75E0));
#128=LINE('',#127,#126);
#129=DIRECTION('',(-1.E0,0.E0,0.E0));
#130=VECTOR('',#129,1.15E0);
#131=CARTESIAN_POINT('',(5.75E-1,-2.5E-2,-1.75E0));
#132=LINE('',#131,#130);
#133=DIRECTION('',(0.E0,0.E0,1.E0));
#134=VECTOR('',#133,3.5E0);
#135=CARTESIAN_POINT('',(1.275E0,-2.5E-2,-1.75E0));
#136=LINE('',#135,#134);
#137=DIRECTION('',(1.E0,0.E0,0.E0));
#138=VECTOR('',#137,2.423223304703E0);
#139=CARTESIAN_POINT('',(1.275E0,-2.5E-2,1.75E0));
#140=LINE('',#139,#138);
#141=DIRECTION('',(7.071067811865E-1,0.E0,-7.071067811865E-1));
#142=VECTOR('',#141,2.5E-1);
#143=CARTESIAN_POINT('',(3.698223304703E0,-2.5E-2,1.75E0));
#144=LINE('',#143,#142);
#145=DIRECTION('',(0.E0,0.E0,-1.E0));
#146=VECTOR('',#145,3.323223304703E0);
#147=CARTESIAN_POINT('',(3.875E0,-2.5E-2,1.573223304703E0));
#148=LINE('',#147,#146);
#149=DIRECTION('',(-1.E0,0.E0,0.E0));
#150=VECTOR('',#149,2.6E0);
#151=CARTESIAN_POINT('',(3.875E0,-2.5E-2,-1.75E0));
#152=LINE('',#151,#150);
#153=DIRECTION('',(-1.E0,0.E0,0.E0));
#154=VECTOR('',#153,2.6E0);
#155=CARTESIAN_POINT('',(-1.275E0,-2.5E-2,-1.75E0));
#156=LINE('',#155,#154);
#157=DIRECTION('',(0.E0,0.E0,1.E0));
#158=VECTOR('',#157,3.5E0);
#159=CARTESIAN_POINT('',(-3.875E0,-2.5E-2,-1.75E0));
#160=LINE('',#159,#158);
#161=DIRECTION('',(1.E0,0.E0,0.E0));
#162=VECTOR('',#161,2.6E0);
#163=CARTESIAN_POINT('',(-3.875E0,-2.5E-2,1.75E0));
#164=LINE('',#163,#162);
#165=DIRECTION('',(0.E0,0.E0,-1.E0));
#166=VECTOR('',#165,3.5E0);
#167=CARTESIAN_POINT('',(-1.275E0,-2.5E-2,1.75E0));
#168=LINE('',#167,#166);
#169=DIRECTION('',(0.E0,-1.E0,0.E0));
#170=VECTOR('',#169,2.5E-2);
#171=CARTESIAN_POINT('',(1.275E0,0.E0,-1.75E0));
#172=LINE('',#171,#170);
#173=DIRECTION('',(0.E0,-1.E0,0.E0));
#174=VECTOR('',#173,2.5E-2);
#175=CARTESIAN_POINT('',(1.275E0,0.E0,1.75E0));
#176=LINE('',#175,#174);
#177=DIRECTION('',(0.E0,-1.E0,0.E0));
#178=VECTOR('',#177,2.5E-2);
#179=CARTESIAN_POINT('',(3.698223304703E0,0.E0,1.75E0));
#180=LINE('',#179,#178);
#181=DIRECTION('',(0.E0,-1.E0,0.E0));
#182=VECTOR('',#181,2.5E-2);
#183=CARTESIAN_POINT('',(3.875E0,0.E0,1.573223304703E0));
#184=LINE('',#183,#182);
#185=DIRECTION('',(0.E0,-1.E0,0.E0));
#186=VECTOR('',#185,2.5E-2);
#187=CARTESIAN_POINT('',(3.875E0,0.E0,-1.75E0));
#188=LINE('',#187,#186);
#189=DIRECTION('',(0.E0,-1.E0,0.E0));
#190=VECTOR('',#189,2.5E-2);
#191=CARTESIAN_POINT('',(-1.275E0,0.E0,-1.75E0));
#192=LINE('',#191,#190);
#193=DIRECTION('',(0.E0,-1.E0,0.E0));
#194=VECTOR('',#193,2.5E-2);
#195=CARTESIAN_POINT('',(-3.875E0,0.E0,-1.75E0));
#196=LINE('',#195,#194);
#197=DIRECTION('',(0.E0,-1.E0,0.E0));
#198=VECTOR('',#197,2.5E-2);
#199=CARTESIAN_POINT('',(-3.875E0,0.E0,1.75E0));
#200=LINE('',#199,#198);
#201=DIRECTION('',(0.E0,-1.E0,0.E0));
#202=VECTOR('',#201,2.5E-2);
#203=CARTESIAN_POINT('',(-1.275E0,0.E0,1.75E0));
#204=LINE('',#203,#202);
#205=CARTESIAN_POINT('',(-4.125E0,0.E0,-2.E0));
#206=CARTESIAN_POINT('',(-4.125E0,0.E0,2.E0));
#207=VERTEX_POINT('',#205);
#208=VERTEX_POINT('',#206);
#209=CARTESIAN_POINT('',(4.125E0,0.E0,2.E0));
#210=VERTEX_POINT('',#209);
#211=CARTESIAN_POINT('',(4.125E0,0.E0,-2.E0));
#212=VERTEX_POINT('',#211);
#213=CARTESIAN_POINT('',(-4.125E0,8.5E-1,-2.E0));
#214=CARTESIAN_POINT('',(-4.125E0,8.5E-1,2.E0));
#215=VERTEX_POINT('',#213);
#216=VERTEX_POINT('',#214);
#217=CARTESIAN_POINT('',(4.125E0,8.5E-1,2.E0));
#218=VERTEX_POINT('',#217);
#219=CARTESIAN_POINT('',(4.125E0,8.5E-1,-2.E0));
#220=VERTEX_POINT('',#219);
#221=CARTESIAN_POINT('',(-5.75E-1,-2.5E-2,-1.75E0));
#222=CARTESIAN_POINT('',(-5.75E-1,-2.5E-2,1.75E0));
#223=VERTEX_POINT('',#221);
#224=VERTEX_POINT('',#222);
#225=CARTESIAN_POINT('',(5.75E-1,-2.5E-2,1.75E0));
#226=VERTEX_POINT('',#225);
#227=CARTESIAN_POINT('',(5.75E-1,-2.5E-2,-1.75E0));
#228=VERTEX_POINT('',#227);
#229=CARTESIAN_POINT('',(1.275E0,-2.5E-2,-1.75E0));
#230=CARTESIAN_POINT('',(1.275E0,-2.5E-2,1.75E0));
#231=VERTEX_POINT('',#229);
#232=VERTEX_POINT('',#230);
#233=CARTESIAN_POINT('',(3.698223304703E0,-2.5E-2,1.75E0));
#234=VERTEX_POINT('',#233);
#235=CARTESIAN_POINT('',(3.875E0,-2.5E-2,1.573223304703E0));
#236=VERTEX_POINT('',#235);
#237=CARTESIAN_POINT('',(3.875E0,-2.5E-2,-1.75E0));
#238=VERTEX_POINT('',#237);
#239=CARTESIAN_POINT('',(-1.275E0,-2.5E-2,-1.75E0));
#240=CARTESIAN_POINT('',(-3.875E0,-2.5E-2,-1.75E0));
#241=VERTEX_POINT('',#239);
#242=VERTEX_POINT('',#240);
#243=CARTESIAN_POINT('',(-3.875E0,-2.5E-2,1.75E0));
#244=VERTEX_POINT('',#243);
#245=CARTESIAN_POINT('',(-1.275E0,-2.5E-2,1.75E0));
#246=VERTEX_POINT('',#245);
#247=CARTESIAN_POINT('',(-5.75E-1,0.E0,-1.75E0));
#248=CARTESIAN_POINT('',(-5.75E-1,0.E0,1.75E0));
#249=VERTEX_POINT('',#247);
#250=VERTEX_POINT('',#248);
#251=CARTESIAN_POINT('',(5.75E-1,0.E0,1.75E0));
#252=VERTEX_POINT('',#251);
#253=CARTESIAN_POINT('',(5.75E-1,0.E0,-1.75E0));
#254=VERTEX_POINT('',#253);
#255=CARTESIAN_POINT('',(1.275E0,0.E0,-1.75E0));
#256=CARTESIAN_POINT('',(1.275E0,0.E0,1.75E0));
#257=VERTEX_POINT('',#255);
#258=VERTEX_POINT('',#256);
#259=CARTESIAN_POINT('',(3.698223304703E0,0.E0,1.75E0));
#260=VERTEX_POINT('',#259);
#261=CARTESIAN_POINT('',(3.875E0,0.E0,1.573223304703E0));
#262=VERTEX_POINT('',#261);
#263=CARTESIAN_POINT('',(3.875E0,0.E0,-1.75E0));
#264=VERTEX_POINT('',#263);
#265=CARTESIAN_POINT('',(-1.275E0,0.E0,-1.75E0));
#266=CARTESIAN_POINT('',(-3.875E0,0.E0,-1.75E0));
#267=VERTEX_POINT('',#265);
#268=VERTEX_POINT('',#266);
#269=CARTESIAN_POINT('',(-3.875E0,0.E0,1.75E0));
#270=VERTEX_POINT('',#269);
#271=CARTESIAN_POINT('',(-1.275E0,0.E0,1.75E0));
#272=VERTEX_POINT('',#271);
#273=CARTESIAN_POINT('',(0.E0,0.E0,0.E0));
#274=DIRECTION('',(0.E0,1.E0,0.E0));
#275=DIRECTION('',(1.E0,0.E0,0.E0));
#276=AXIS2_PLACEMENT_3D('',#273,#274,#275);
#277=PLANE('',#276);
#279=ORIENTED_EDGE('',*,*,#278,.T.);
#281=ORIENTED_EDGE('',*,*,#280,.T.);
#283=ORIENTED_EDGE('',*,*,#282,.T.);
#285=ORIENTED_EDGE('',*,*,#284,.T.);
#286=EDGE_LOOP('',(#279,#281,#283,#285));
#287=FACE_OUTER_BOUND('',#286,.F.);
#289=ORIENTED_EDGE('',*,*,#288,.F.);
#291=ORIENTED_EDGE('',*,*,#290,.F.);
#293=ORIENTED_EDGE('',*,*,#292,.F.);
#295=ORIENTED_EDGE('',*,*,#294,.F.);
#296=EDGE_LOOP('',(#289,#291,#293,#295));
#297=FACE_BOUND('',#296,.F.);
#299=ORIENTED_EDGE('',*,*,#298,.F.);
#301=ORIENTED_EDGE('',*,*,#300,.F.);
#303=ORIENTED_EDGE('',*,*,#302,.F.);
#305=ORIENTED_EDGE('',*,*,#304,.F.);
#307=ORIENTED_EDGE('',*,*,#306,.F.);
#308=EDGE_LOOP('',(#299,#301,#303,#305,#307));
#309=FACE_BOUND('',#308,.F.);
#311=ORIENTED_EDGE('',*,*,#310,.F.);
#313=ORIENTED_EDGE('',*,*,#312,.F.);
#315=ORIENTED_EDGE('',*,*,#314,.F.);
#317=ORIENTED_EDGE('',*,*,#316,.F.);
#318=EDGE_LOOP('',(#311,#313,#315,#317));
#319=FACE_BOUND('',#318,.F.);
#321=CARTESIAN_POINT('',(-4.125E0,0.E0,-2.E0));
#322=DIRECTION('',(-1.E0,0.E0,0.E0));
#323=DIRECTION('',(0.E0,0.E0,1.E0));
#324=AXIS2_PLACEMENT_3D('',#321,#322,#323);
#325=PLANE('',#324);
#326=ORIENTED_EDGE('',*,*,#278,.F.);
#328=ORIENTED_EDGE('',*,*,#327,.T.);
#330=ORIENTED_EDGE('',*,*,#329,.T.);
#332=ORIENTED_EDGE('',*,*,#331,.F.);
#333=EDGE_LOOP('',(#326,#328,#330,#332));
#334=FACE_OUTER_BOUND('',#333,.F.);
#336=CARTESIAN_POINT('',(4.125E0,0.E0,-2.E0));
#337=DIRECTION('',(0.E0,0.E0,-1.E0));
#338=DIRECTION('',(-1.E0,0.E0,0.E0));
#339=AXIS2_PLACEMENT_3D('',#336,#337,#338);
#340=PLANE('',#339);
#341=ORIENTED_EDGE('',*,*,#284,.F.);
#343=ORIENTED_EDGE('',*,*,#342,.T.);
#345=ORIENTED_EDGE('',*,*,#344,.T.);
#346=ORIENTED_EDGE('',*,*,#327,.F.);
#347=EDGE_LOOP('',(#341,#343,#345,#346));
#348=FACE_OUTER_BOUND('',#347,.F.);
#350=CARTESIAN_POINT('',(4.125E0,0.E0,2.E0));
#351=DIRECTION('',(1.E0,0.E0,0.E0));
#352=DIRECTION('',(0.E0,0.E0,-1.E0));
#353=AXIS2_PLACEMENT_3D('',#350,#351,#352);
#354=PLANE('',#353);
#355=ORIENTED_EDGE('',*,*,#282,.F.);
#357=ORIENTED_EDGE('',*,*,#356,.T.);
#359=ORIENTED_EDGE('',*,*,#358,.T.);
#360=ORIENTED_EDGE('',*,*,#342,.F.);
#361=EDGE_LOOP('',(#355,#357,#359,#360));
#362=FACE_OUTER_BOUND('',#361,.F.);
#364=CARTESIAN_POINT('',(-4.125E0,0.E0,2.E0));
#365=DIRECTION('',(0.E0,0.E0,1.E0));
#366=DIRECTION('',(1.E0,0.E0,0.E0));
#367=AXIS2_PLACEMENT_3D('',#364,#365,#366);
#368=PLANE('',#367);
#369=ORIENTED_EDGE('',*,*,#280,.F.);
#370=ORIENTED_EDGE('',*,*,#331,.T.);
#372=ORIENTED_EDGE('',*,*,#371,.T.);
#373=ORIENTED_EDGE('',*,*,#356,.F.);
#374=EDGE_LOOP('',(#369,#370,#372,#373));
#375=FACE_OUTER_BOUND('',#374,.F.);
#377=CARTESIAN_POINT('',(0.E0,8.5E-1,0.E0));
#378=DIRECTION('',(0.E0,1.E0,0.E0));
#379=DIRECTION('',(1.E0,0.E0,0.E0));
#380=AXIS2_PLACEMENT_3D('',#377,#378,#379);
#381=PLANE('',#380);
#382=ORIENTED_EDGE('',*,*,#329,.F.);
#383=ORIENTED_EDGE('',*,*,#344,.F.);
#384=ORIENTED_EDGE('',*,*,#358,.F.);
#385=ORIENTED_EDGE('',*,*,#371,.F.);
#386=EDGE_LOOP('',(#382,#383,#384,#385));
#387=FACE_OUTER_BOUND('',#386,.F.);
#389=CARTESIAN_POINT('',(-5.75E-1,0.E0,-1.75E0));
#390=DIRECTION('',(-1.E0,0.E0,0.E0));
#391=DIRECTION('',(0.E0,0.E0,1.E0));
#392=AXIS2_PLACEMENT_3D('',#389,#390,#391);
#393=PLANE('',#392);
#394=ORIENTED_EDGE('',*,*,#288,.T.);
#396=ORIENTED_EDGE('',*,*,#395,.T.);
#398=ORIENTED_EDGE('',*,*,#397,.F.);
#400=ORIENTED_EDGE('',*,*,#399,.F.);
#401=EDGE_LOOP('',(#394,#396,#398,#400));
#402=FACE_OUTER_BOUND('',#401,.F.);
#404=CARTESIAN_POINT('',(-5.75E-1,0.E0,1.75E0));
#405=DIRECTION('',(0.E0,0.E0,1.E0));
#406=DIRECTION('',(1.E0,0.E0,0.E0));
#407=AXIS2_PLACEMENT_3D('',#404,#405,#406);
#408=PLANE('',#407);
#409=ORIENTED_EDGE('',*,*,#294,.T.);
#411=ORIENTED_EDGE('',*,*,#410,.T.);
#413=ORIENTED_EDGE('',*,*,#412,.F.);
#414=ORIENTED_EDGE('',*,*,#395,.F.);
#415=EDGE_LOOP('',(#409,#411,#413,#414));
#416=FACE_OUTER_BOUND('',#415,.F.);
#418=CARTESIAN_POINT('',(5.75E-1,0.E0,1.75E0));
#419=DIRECTION('',(1.E0,0.E0,0.E0));
#420=DIRECTION('',(0.E0,0.E0,-1.E0));
#421=AXIS2_PLACEMENT_3D('',#418,#419,#420);
#422=PLANE('',#421);
#423=ORIENTED_EDGE('',*,*,#292,.T.);
#425=ORIENTED_EDGE('',*,*,#424,.T.);
#427=ORIENTED_EDGE('',*,*,#426,.F.);
#428=ORIENTED_EDGE('',*,*,#410,.F.);
#429=EDGE_LOOP('',(#423,#425,#427,#428));
#430=FACE_OUTER_BOUND('',#429,.F.);
#432=CARTESIAN_POINT('',(5.75E-1,0.E0,-1.75E0));
#433=DIRECTION('',(0.E0,0.E0,-1.E0));
#434=DIRECTION('',(-1.E0,0.E0,0.E0));
#435=AXIS2_PLACEMENT_3D('',#432,#433,#434);
#436=PLANE('',#435);
#437=ORIENTED_EDGE('',*,*,#290,.T.);
#438=ORIENTED_EDGE('',*,*,#399,.T.);
#440=ORIENTED_EDGE('',*,*,#439,.F.);
#441=ORIENTED_EDGE('',*,*,#424,.F.);
#442=EDGE_LOOP('',(#437,#438,#440,#441));
#443=FACE_OUTER_BOUND('',#442,.F.);
#445=CARTESIAN_POINT('',(0.E0,-2.5E-2,0.E0));
#446=DIRECTION('',(0.E0,1.E0,0.E0));
#447=DIRECTION('',(1.E0,0.E0,0.E0));
#448=AXIS2_PLACEMENT_3D('',#445,#446,#447);
#449=PLANE('',#448);
#450=ORIENTED_EDGE('',*,*,#397,.T.);
#451=ORIENTED_EDGE('',*,*,#412,.T.);
#452=ORIENTED_EDGE('',*,*,#426,.T.);
#453=ORIENTED_EDGE('',*,*,#439,.T.);
#454=EDGE_LOOP('',(#450,#451,#452,#453));
#455=FACE_OUTER_BOUND('',#454,.F.);
#457=CARTESIAN_POINT('',(0.E0,-2.5E-2,0.E0));
#458=DIRECTION('',(0.E0,1.E0,0.E0));
#459=DIRECTION('',(1.E0,0.E0,0.E0));
#460=AXIS2_PLACEMENT_3D('',#457,#458,#459);
#461=PLANE('',#460);
#463=ORIENTED_EDGE('',*,*,#462,.T.);
#465=ORIENTED_EDGE('',*,*,#464,.T.);
#467=ORIENTED_EDGE('',*,*,#466,.T.);
#469=ORIENTED_EDGE('',*,*,#468,.T.);
#471=ORIENTED_EDGE('',*,*,#470,.T.);
#472=EDGE_LOOP('',(#463,#465,#467,#469,#471));
#473=FACE_OUTER_BOUND('',#472,.F.);
#475=CARTESIAN_POINT('',(0.E0,-2.5E-2,0.E0));
#476=DIRECTION('',(0.E0,1.E0,0.E0));
#477=DIRECTION('',(1.E0,0.E0,0.E0));
#478=AXIS2_PLACEMENT_3D('',#475,#476,#477);
#479=PLANE('',#478);
#481=ORIENTED_EDGE('',*,*,#480,.T.);
#483=ORIENTED_EDGE('',*,*,#482,.T.);
#485=ORIENTED_EDGE('',*,*,#484,.T.);
#487=ORIENTED_EDGE('',*,*,#486,.T.);
#488=EDGE_LOOP('',(#481,#483,#485,#487));
#489=FACE_OUTER_BOUND('',#488,.F.);
#491=CARTESIAN_POINT('',(1.275E0,0.E0,-1.75E0));
#492=DIRECTION('',(-1.E0,0.E0,0.E0));
#493=DIRECTION('',(0.E0,0.E0,1.E0));
#494=AXIS2_PLACEMENT_3D('',#491,#492,#493);
#495=PLANE('',#494);
#496=ORIENTED_EDGE('',*,*,#298,.T.);
#498=ORIENTED_EDGE('',*,*,#497,.T.);
#499=ORIENTED_EDGE('',*,*,#462,.F.);
#501=ORIENTED_EDGE('',*,*,#500,.F.);
#502=EDGE_LOOP('',(#496,#498,#499,#501));
#503=FACE_OUTER_BOUND('',#502,.F.);
#505=CARTESIAN_POINT('',(1.275E0,0.E0,1.75E0));
#506=DIRECTION('',(0.E0,0.E0,1.E0));
#507=DIRECTION('',(1.E0,0.E0,0.E0));
#508=AXIS2_PLACEMENT_3D('',#505,#506,#507);
#509=PLANE('',#508);
#510=ORIENTED_EDGE('',*,*,#306,.T.);
#512=ORIENTED_EDGE('',*,*,#511,.T.);
#513=ORIENTED_EDGE('',*,*,#464,.F.);
#514=ORIENTED_EDGE('',*,*,#497,.F.);
#515=EDGE_LOOP('',(#510,#512,#513,#514));
#516=FACE_OUTER_BOUND('',#515,.F.);
#518=CARTESIAN_POINT('',(3.698223304703E0,0.E0,1.75E0));
#519=DIRECTION('',(7.071067811865E-1,0.E0,7.071067811865E-1));
#520=DIRECTION('',(7.071067811865E-1,0.E0,-7.071067811865E-1));
#521=AXIS2_PLACEMENT_3D('',#518,#519,#520);
#522=PLANE('',#521);
#523=ORIENTED_EDGE('',*,*,#304,.T.);
#525=ORIENTED_EDGE('',*,*,#524,.T.);
#526=ORIENTED_EDGE('',*,*,#466,.F.);
#527=ORIENTED_EDGE('',*,*,#511,.F.);
#528=EDGE_LOOP('',(#523,#525,#526,#527));
#529=FACE_OUTER_BOUND('',#528,.F.);
#531=CARTESIAN_POINT('',(3.875E0,0.E0,1.573223304703E0));
#532=DIRECTION('',(1.E0,0.E0,0.E0));
#533=DIRECTION('',(0.E0,0.E0,-1.E0));
#534=AXIS2_PLACEMENT_3D('',#531,#532,#533);
#535=PLANE('',#534);
#536=ORIENTED_EDGE('',*,*,#302,.T.);
#538=ORIENTED_EDGE('',*,*,#537,.T.);
#539=ORIENTED_EDGE('',*,*,#468,.F.);
#540=ORIENTED_EDGE('',*,*,#524,.F.);
#541=EDGE_LOOP('',(#536,#538,#539,#540));
#542=FACE_OUTER_BOUND('',#541,.F.);
#544=CARTESIAN_POINT('',(3.875E0,0.E0,-1.75E0));
#545=DIRECTION('',(0.E0,0.E0,-1.E0));
#546=DIRECTION('',(-1.E0,0.E0,0.E0));
#547=AXIS2_PLACEMENT_3D('',#544,#545,#546);
#548=PLANE('',#547);
#549=ORIENTED_EDGE('',*,*,#300,.T.);
#550=ORIENTED_EDGE('',*,*,#500,.T.);
#551=ORIENTED_EDGE('',*,*,#470,.F.);
#552=ORIENTED_EDGE('',*,*,#537,.F.);
#553=EDGE_LOOP('',(#549,#550,#551,#552));
#554=FACE_OUTER_BOUND('',#553,.F.);
#556=CARTESIAN_POINT('',(-1.275E0,0.E0,-1.75E0));
#557=DIRECTION('',(0.E0,0.E0,-1.E0));
#558=DIRECTION('',(-1.E0,0.E0,0.E0));
#559=AXIS2_PLACEMENT_3D('',#556,#557,#558);
#560=PLANE('',#559);
#561=ORIENTED_EDGE('',*,*,#310,.T.);
#563=ORIENTED_EDGE('',*,*,#562,.T.);
#564=ORIENTED_EDGE('',*,*,#480,.F.);
#566=ORIENTED_EDGE('',*,*,#565,.F.);
#567=EDGE_LOOP('',(#561,#563,#564,#566));
#568=FACE_OUTER_BOUND('',#567,.F.);
#570=CARTESIAN_POINT('',(-3.875E0,0.E0,-1.75E0));
#571=DIRECTION('',(-1.E0,0.E0,0.E0));
#572=DIRECTION('',(0.E0,0.E0,1.E0));
#573=AXIS2_PLACEMENT_3D('',#570,#571,#572);
#574=PLANE('',#573);
#575=ORIENTED_EDGE('',*,*,#316,.T.);
#577=ORIENTED_EDGE('',*,*,#576,.T.);
#578=ORIENTED_EDGE('',*,*,#482,.F.);
#579=ORIENTED_EDGE('',*,*,#562,.F.);
#580=EDGE_LOOP('',(#575,#577,#578,#579));
#581=FACE_OUTER_BOUND('',#580,.F.);
#583=CARTESIAN_POINT('',(-3.875E0,0.E0,1.75E0));
#584=DIRECTION('',(0.E0,0.E0,1.E0));
#585=DIRECTION('',(1.E0,0.E0,0.E0));
#586=AXIS2_PLACEMENT_3D('',#583,#584,#585);
#587=PLANE('',#586);
#588=ORIENTED_EDGE('',*,*,#314,.T.);
#590=ORIENTED_EDGE('',*,*,#589,.T.);
#591=ORIENTED_EDGE('',*,*,#484,.F.);
#592=ORIENTED_EDGE('',*,*,#576,.F.);
#593=EDGE_LOOP('',(#588,#590,#591,#592));
#594=FACE_OUTER_BOUND('',#593,.F.);
#596=CARTESIAN_POINT('',(-1.275E0,0.E0,1.75E0));
#597=DIRECTION('',(1.E0,0.E0,0.E0));
#598=DIRECTION('',(0.E0,0.E0,-1.E0));
#599=AXIS2_PLACEMENT_3D('',#596,#597,#598);
#600=PLANE('',#599);
#601=ORIENTED_EDGE('',*,*,#312,.T.);
#602=ORIENTED_EDGE('',*,*,#565,.T.);
#603=ORIENTED_EDGE('',*,*,#486,.F.);
#604=ORIENTED_EDGE('',*,*,#589,.F.);
#605=EDGE_LOOP('',(#601,#602,#603,#604));
#606=FACE_OUTER_BOUND('',#605,.F.);
#608=CLOSED_SHELL('',(#320,#335,#349,#363,#376,#388,#403,#417,#431,#444,#456,
#474,#490,#504,#517,#530,#543,#555,#569,#582,#595,#607));
#609=MANIFOLD_SOLID_BREP('',#608);
#611=DIMENSIONAL_EXPONENTS(0.E0,0.E0,0.E0,0.E0,0.E0,0.E0,0.E0);
#613=PLANE_ANGLE_MEASURE_WITH_UNIT(PLANE_ANGLE_MEASURE(1.745329251994E-2),#612);
#614=(CONVERSION_BASED_UNIT('DEGREE',#613)NAMED_UNIT(*)PLANE_ANGLE_UNIT());
#616=UNCERTAINTY_MEASURE_WITH_UNIT(LENGTH_MEASURE(3.837437542147E-4),#610,
'closure',
'Maximum model space distance between geometric entities at asserted connectivities');
#619=APPLICATION_CONTEXT(
'CONFIGURATION CONTROLLED 3D DESIGNS OF MECHANICAL PARTS AND ASSEMBLIES');
#620=APPLICATION_PROTOCOL_DEFINITION('international standard',
'config_control_design',1994,#619);
#621=DESIGN_CONTEXT('',#619,'design');
#622=MECHANICAL_CONTEXT('',#619,'mechanical');
#623=PRODUCT('C','C','NOT SPECIFIED',(#622));
#624=PRODUCT_DEFINITION_FORMATION_WITH_SPECIFIED_SOURCE('1','LAST_VERSION',#623,
.MADE.);
#628=PRODUCT_CATEGORY('part','');
#629=PRODUCT_RELATED_PRODUCT_CATEGORY('detail','',(#623));
#630=PRODUCT_CATEGORY_RELATIONSHIP('','',#628,#629);
#631=SECURITY_CLASSIFICATION_LEVEL('unclassified');
#632=SECURITY_CLASSIFICATION('','',#631);
#633=CC_DESIGN_SECURITY_CLASSIFICATION(#632,(#624));
#634=APPROVAL_STATUS('approved');
#635=APPROVAL(#634,'');
#636=CC_DESIGN_APPROVAL(#635,(#632,#624,#625));
#637=CALENDAR_DATE(112,23,7);
#638=COORDINATED_UNIVERSAL_TIME_OFFSET(7,0,.BEHIND.);
#639=LOCAL_TIME(10,47,3.E1,#638);
#640=DATE_AND_TIME(#637,#639);
#641=APPROVAL_DATE_TIME(#640,#635);
#642=DATE_TIME_ROLE('creation_date');
#643=CC_DESIGN_DATE_AND_TIME_ASSIGNMENT(#640,#642,(#625));
#644=DATE_TIME_ROLE('classification_date');
#645=CC_DESIGN_DATE_AND_TIME_ASSIGNMENT(#640,#644,(#632));
#646=PERSON('UNSPECIFIED','UNSPECIFIED',$,$,$,$);
#647=ORGANIZATION('UNSPECIFIED','UNSPECIFIED','UNSPECIFIED');
#648=PERSON_AND_ORGANIZATION(#646,#647);
#649=APPROVAL_ROLE('approver');
#650=APPROVAL_PERSON_ORGANIZATION(#648,#635,#649);
#651=PERSON_AND_ORGANIZATION_ROLE('creator');
#652=CC_DESIGN_PERSON_AND_ORGANIZATION_ASSIGNMENT(#648,#651,(#624,#625));
#653=PERSON_AND_ORGANIZATION_ROLE('design_supplier');
#654=CC_DESIGN_PERSON_AND_ORGANIZATION_ASSIGNMENT(#648,#653,(#624));
#655=PERSON_AND_ORGANIZATION_ROLE('classification_officer');
#656=CC_DESIGN_PERSON_AND_ORGANIZATION_ASSIGNMENT(#648,#655,(#632));
#657=PERSON_AND_ORGANIZATION_ROLE('design_owner');
#658=CC_DESIGN_PERSON_AND_ORGANIZATION_ASSIGNMENT(#648,#657,(#623));
#278=EDGE_CURVE('',#207,#208,#4,.T.);
#280=EDGE_CURVE('',#208,#210,#8,.T.);
#282=EDGE_CURVE('',#210,#212,#12,.T.);
#284=EDGE_CURVE('',#212,#207,#16,.T.);
#288=EDGE_CURVE('',#249,#250,#20,.T.);
#290=EDGE_CURVE('',#254,#249,#24,.T.);
#292=EDGE_CURVE('',#252,#254,#28,.T.);
#294=EDGE_CURVE('',#250,#252,#32,.T.);
#298=EDGE_CURVE('',#257,#258,#36,.T.);
#300=EDGE_CURVE('',#264,#257,#40,.T.);
#302=EDGE_CURVE('',#262,#264,#44,.T.);
#304=EDGE_CURVE('',#260,#262,#48,.T.);
#306=EDGE_CURVE('',#258,#260,#52,.T.);
#310=EDGE_CURVE('',#267,#268,#56,.T.);
#312=EDGE_CURVE('',#272,#267,#60,.T.);
#314=EDGE_CURVE('',#270,#272,#64,.T.);
#316=EDGE_CURVE('',#268,#270,#68,.T.);
#320=ADVANCED_FACE('',(#287,#297,#309,#319),#277,.F.);
#327=EDGE_CURVE('',#207,#215,#72,.T.);
#329=EDGE_CURVE('',#215,#216,#88,.T.);
#331=EDGE_CURVE('',#208,#216,#84,.T.);
#335=ADVANCED_FACE('',(#334),#325,.T.);
#342=EDGE_CURVE('',#212,#220,#76,.T.);
#344=EDGE_CURVE('',#220,#215,#92,.T.);
#349=ADVANCED_FACE('',(#348),#340,.T.);
#356=EDGE_CURVE('',#210,#218,#80,.T.);
#358=EDGE_CURVE('',#218,#220,#96,.T.);
#363=ADVANCED_FACE('',(#362),#354,.T.);
#371=EDGE_CURVE('',#216,#218,#100,.T.);
#376=ADVANCED_FACE('',(#375),#368,.T.);
#388=ADVANCED_FACE('',(#387),#381,.T.);
#395=EDGE_CURVE('',#250,#224,#108,.T.);
#397=EDGE_CURVE('',#223,#224,#120,.T.);
#399=EDGE_CURVE('',#249,#223,#104,.T.);
#403=ADVANCED_FACE('',(#402),#393,.T.);
#410=EDGE_CURVE('',#252,#226,#112,.T.);
#412=EDGE_CURVE('',#224,#226,#124,.T.);
#417=ADVANCED_FACE('',(#416),#408,.T.);
#424=EDGE_CURVE('',#254,#228,#116,.T.);
#426=EDGE_CURVE('',#226,#228,#128,.T.);
#431=ADVANCED_FACE('',(#430),#422,.T.);
#439=EDGE_CURVE('',#228,#223,#132,.T.);
#444=ADVANCED_FACE('',(#443),#436,.T.);
#456=ADVANCED_FACE('',(#455),#449,.F.);
#462=EDGE_CURVE('',#231,#232,#136,.T.);
#464=EDGE_CURVE('',#232,#234,#140,.T.);
#466=EDGE_CURVE('',#234,#236,#144,.T.);
#468=EDGE_CURVE('',#236,#238,#148,.T.);
#470=EDGE_CURVE('',#238,#231,#152,.T.);
#474=ADVANCED_FACE('',(#473),#461,.F.);
#480=EDGE_CURVE('',#241,#242,#156,.T.);
#482=EDGE_CURVE('',#242,#244,#160,.T.);
#484=EDGE_CURVE('',#244,#246,#164,.T.);
#486=EDGE_CURVE('',#246,#241,#168,.T.);
#490=ADVANCED_FACE('',(#489),#479,.F.);
#497=EDGE_CURVE('',#258,#232,#176,.T.);
#500=EDGE_CURVE('',#257,#231,#172,.T.);
#504=ADVANCED_FACE('',(#503),#495,.T.);
#511=EDGE_CURVE('',#260,#234,#180,.T.);
#517=ADVANCED_FACE('',(#516),#509,.T.);
#524=EDGE_CURVE('',#262,#236,#184,.T.);
#530=ADVANCED_FACE('',(#529),#522,.T.);
#537=EDGE_CURVE('',#264,#238,#188,.T.);
#543=ADVANCED_FACE('',(#542),#535,.T.);
#555=ADVANCED_FACE('',(#554),#548,.T.);
#562=EDGE_CURVE('',#268,#242,#196,.T.);
#565=EDGE_CURVE('',#267,#241,#192,.T.);
#569=ADVANCED_FACE('',(#568),#560,.T.);
#576=EDGE_CURVE('',#270,#244,#200,.T.);
#582=ADVANCED_FACE('',(#581),#574,.T.);
#589=EDGE_CURVE('',#272,#246,#204,.T.);
#595=ADVANCED_FACE('',(#594),#587,.T.);
#607=ADVANCED_FACE('',(#606),#600,.T.);
#610=(LENGTH_UNIT()NAMED_UNIT(*)SI_UNIT(.MILLI.,.METRE.));
#612=(NAMED_UNIT(*)PLANE_ANGLE_UNIT()SI_UNIT($,.RADIAN.));
#615=(NAMED_UNIT(*)SI_UNIT($,.STERADIAN.)SOLID_ANGLE_UNIT());
#617=(GEOMETRIC_REPRESENTATION_CONTEXT(3)GLOBAL_UNCERTAINTY_ASSIGNED_CONTEXT((
#616))GLOBAL_UNIT_ASSIGNED_CONTEXT((#610,#614,#615))REPRESENTATION_CONTEXT
('ID1','3'));
#618=ADVANCED_BREP_SHAPE_REPRESENTATION('',(#609),#617);
#625=PRODUCT_DEFINITION('design','',#624,#621);
#626=PRODUCT_DEFINITION_SHAPE('','SHAPE FOR C.',#625);
#627=SHAPE_DEFINITION_REPRESENTATION(#626,#618);
ENDSEC;
END-ISO-10303-21;
