ISO-10303-21;
HEADER;
FILE_DESCRIPTION((''),'2;1');
FILE_NAME('CHF1206CNT','2012-08-17T',('ryans'),('Bourns, Inc.'),
'PRO/ENGINEER BY PARAMETRIC TECHNOLOGY CORPORATION, 2010100',
'PRO/ENGINEER BY PARAMETRIC TECHNOLOGY CORPORATION, 2010100','');
FILE_SCHEMA(('CONFIG_CONTROL_DESIGN'));
ENDSEC;
DATA;
#1=DIRECTION('',(0.E0,0.E0,1.E0));
#2=VECTOR('',#1,1.5748E0);
#3=CARTESIAN_POINT('',(-1.524E0,0.E0,-7.874E-1));
#4=LINE('',#3,#2);
#5=DIRECTION('',(1.E0,0.E0,0.E0));
#6=VECTOR('',#5,3.048E0);
#7=CARTESIAN_POINT('',(-1.524E0,0.E0,7.874E-1));
#8=LINE('',#7,#6);
#9=DIRECTION('',(0.E0,0.E0,-1.E0));
#10=VECTOR('',#9,1.5748E0);
#11=CARTESIAN_POINT('',(1.524E0,0.E0,7.874E-1));
#12=LINE('',#11,#10);
#13=DIRECTION('',(-1.E0,0.E0,0.E0));
#14=VECTOR('',#13,3.048E0);
#15=CARTESIAN_POINT('',(1.524E0,0.E0,-7.874E-1));
#16=LINE('',#15,#14);
#17=DIRECTION('',(0.E0,0.E0,1.E0));
#18=VECTOR('',#17,1.5748E0);
#19=CARTESIAN_POINT('',(-1.524E0,5.25E-1,-7.874E-1));
#20=LINE('',#19,#18);
#21=DIRECTION('',(0.E0,1.E0,0.E0));
#22=VECTOR('',#21,5.25E-1);
#23=CARTESIAN_POINT('',(-1.524E0,0.E0,-7.874E-1));
#24=LINE('',#23,#22);
#25=DIRECTION('',(1.E0,0.E0,0.E0));
#26=VECTOR('',#25,7.72E-1);
#27=CARTESIAN_POINT('',(-1.524E0,5.25E-1,-7.874E-1));
#28=LINE('',#27,#26);
#29=DIRECTION('',(0.E0,1.E0,0.E0));
#30=VECTOR('',#29,6.35E-1);
#31=CARTESIAN_POINT('',(1.524E0,0.E0,-7.874E-1));
#32=LINE('',#31,#30);
#33=DIRECTION('',(0.E0,1.E0,0.E0));
#34=VECTOR('',#33,6.35E-1);
#35=CARTESIAN_POINT('',(1.524E0,0.E0,7.874E-1));
#36=LINE('',#35,#34);
#37=DIRECTION('',(1.E0,0.E0,0.E0));
#38=VECTOR('',#37,7.72E-1);
#39=CARTESIAN_POINT('',(-1.524E0,5.25E-1,7.874E-1));
#40=LINE('',#39,#38);
#41=DIRECTION('',(0.E0,1.E0,0.E0));
#42=VECTOR('',#41,5.25E-1);
#43=CARTESIAN_POINT('',(-1.524E0,0.E0,7.874E-1));
#44=LINE('',#43,#42);
#45=DIRECTION('',(0.E0,-1.E0,0.E0));
#46=VECTOR('',#45,1.1E-1);
#47=CARTESIAN_POINT('',(-7.52E-1,6.35E-1,7.874E-1));
#48=LINE('',#47,#46);
#49=DIRECTION('',(0.E0,0.E0,-1.E0));
#50=VECTOR('',#49,1.5748E0);
#51=CARTESIAN_POINT('',(-7.52E-1,5.25E-1,7.874E-1));
#52=LINE('',#51,#50);
#53=DIRECTION('',(0.E0,1.E0,0.E0));
#54=VECTOR('',#53,1.1E-1);
#55=CARTESIAN_POINT('',(-7.52E-1,5.25E-1,-7.874E-1));
#56=LINE('',#55,#54);
#57=DIRECTION('',(0.E0,0.E0,-1.E0));
#58=VECTOR('',#57,1.5748E0);
#59=CARTESIAN_POINT('',(-7.52E-1,6.35E-1,7.874E-1));
#60=LINE('',#59,#58);
#61=DIRECTION('',(-1.E0,0.E0,0.E0));
#62=VECTOR('',#61,2.276E0);
#63=CARTESIAN_POINT('',(1.524E0,6.35E-1,-7.874E-1));
#64=LINE('',#63,#62);
#65=DIRECTION('',(0.E0,0.E0,-1.E0));
#66=VECTOR('',#65,1.5748E0);
#67=CARTESIAN_POINT('',(1.524E0,6.35E-1,7.874E-1));
#68=LINE('',#67,#66);
#69=DIRECTION('',(1.E0,0.E0,0.E0));
#70=VECTOR('',#69,2.276E0);
#71=CARTESIAN_POINT('',(-7.52E-1,6.35E-1,7.874E-1));
#72=LINE('',#71,#70);
#73=CARTESIAN_POINT('',(-1.524E0,0.E0,-7.874E-1));
#74=CARTESIAN_POINT('',(-1.524E0,0.E0,7.874E-1));
#75=VERTEX_POINT('',#73);
#76=VERTEX_POINT('',#74);
#77=CARTESIAN_POINT('',(1.524E0,0.E0,7.874E-1));
#78=VERTEX_POINT('',#77);
#79=CARTESIAN_POINT('',(1.524E0,0.E0,-7.874E-1));
#80=VERTEX_POINT('',#79);
#81=CARTESIAN_POINT('',(1.524E0,6.35E-1,7.874E-1));
#82=CARTESIAN_POINT('',(1.524E0,6.35E-1,-7.874E-1));
#83=VERTEX_POINT('',#81);
#84=VERTEX_POINT('',#82);
#85=CARTESIAN_POINT('',(-7.52E-1,6.35E-1,7.874E-1));
#86=CARTESIAN_POINT('',(-7.52E-1,6.35E-1,-7.874E-1));
#87=VERTEX_POINT('',#85);
#88=VERTEX_POINT('',#86);
#89=CARTESIAN_POINT('',(-1.524E0,5.25E-1,-7.874E-1));
#90=CARTESIAN_POINT('',(-1.524E0,5.25E-1,7.874E-1));
#91=VERTEX_POINT('',#89);
#92=VERTEX_POINT('',#90);
#93=CARTESIAN_POINT('',(-7.52E-1,5.25E-1,7.874E-1));
#94=VERTEX_POINT('',#93);
#95=CARTESIAN_POINT('',(-7.52E-1,5.25E-1,-7.874E-1));
#96=VERTEX_POINT('',#95);
#97=CARTESIAN_POINT('',(0.E0,0.E0,0.E0));
#98=DIRECTION('',(0.E0,1.E0,0.E0));
#99=DIRECTION('',(1.E0,0.E0,0.E0));
#100=AXIS2_PLACEMENT_3D('',#97,#98,#99);
#101=PLANE('',#100);
#103=ORIENTED_EDGE('',*,*,#102,.T.);
#105=ORIENTED_EDGE('',*,*,#104,.T.);
#107=ORIENTED_EDGE('',*,*,#106,.T.);
#109=ORIENTED_EDGE('',*,*,#108,.T.);
#110=EDGE_LOOP('',(#103,#105,#107,#109));
#111=FACE_OUTER_BOUND('',#110,.F.);
#113=CARTESIAN_POINT('',(-1.524E0,0.E0,-7.874E-1));
#114=DIRECTION('',(-1.E0,0.E0,0.E0));
#115=DIRECTION('',(0.E0,0.E0,1.E0));
#116=AXIS2_PLACEMENT_3D('',#113,#114,#115);
#117=PLANE('',#116);
#119=ORIENTED_EDGE('',*,*,#118,.T.);
#121=ORIENTED_EDGE('',*,*,#120,.F.);
#122=ORIENTED_EDGE('',*,*,#102,.F.);
#124=ORIENTED_EDGE('',*,*,#123,.T.);
#125=EDGE_LOOP('',(#119,#121,#122,#124));
#126=FACE_OUTER_BOUND('',#125,.F.);
#128=CARTESIAN_POINT('',(-1.536999435379E0,5.25E-1,7.874E-1));
#129=DIRECTION('',(0.E0,-1.E0,0.E0));
#130=DIRECTION('',(1.E0,0.E0,0.E0));
#131=AXIS2_PLACEMENT_3D('',#128,#129,#130);
#132=PLANE('',#131);
#133=ORIENTED_EDGE('',*,*,#118,.F.);
#135=ORIENTED_EDGE('',*,*,#134,.T.);
#137=ORIENTED_EDGE('',*,*,#136,.F.);
#139=ORIENTED_EDGE('',*,*,#138,.F.);
#140=EDGE_LOOP('',(#133,#135,#137,#139));
#141=FACE_OUTER_BOUND('',#140,.F.);
#143=CARTESIAN_POINT('',(1.524E0,0.E0,-7.874E-1));
#144=DIRECTION('',(0.E0,0.E0,-1.E0));
#145=DIRECTION('',(-1.E0,0.E0,0.E0));
#146=AXIS2_PLACEMENT_3D('',#143,#144,#145);
#147=PLANE('',#146);
#148=ORIENTED_EDGE('',*,*,#134,.F.);
#149=ORIENTED_EDGE('',*,*,#123,.F.);
#150=ORIENTED_EDGE('',*,*,#108,.F.);
#152=ORIENTED_EDGE('',*,*,#151,.T.);
#154=ORIENTED_EDGE('',*,*,#153,.T.);
#156=ORIENTED_EDGE('',*,*,#155,.F.);
#157=EDGE_LOOP('',(#148,#149,#150,#152,#154,#156));
#158=FACE_OUTER_BOUND('',#157,.F.);
#160=CARTESIAN_POINT('',(1.524E0,0.E0,7.874E-1));
#161=DIRECTION('',(1.E0,0.E0,0.E0));
#162=DIRECTION('',(0.E0,0.E0,-1.E0));
#163=AXIS2_PLACEMENT_3D('',#160,#161,#162);
#164=PLANE('',#163);
#165=ORIENTED_EDGE('',*,*,#106,.F.);
#167=ORIENTED_EDGE('',*,*,#166,.T.);
#169=ORIENTED_EDGE('',*,*,#168,.T.);
#170=ORIENTED_EDGE('',*,*,#151,.F.);
#171=EDGE_LOOP('',(#165,#167,#169,#170));
#172=FACE_OUTER_BOUND('',#171,.F.);
#174=CARTESIAN_POINT('',(-1.524E0,0.E0,7.874E-1));
#175=DIRECTION('',(0.E0,0.E0,1.E0));
#176=DIRECTION('',(1.E0,0.E0,0.E0));
#177=AXIS2_PLACEMENT_3D('',#174,#175,#176);
#178=PLANE('',#177);
#179=ORIENTED_EDGE('',*,*,#138,.T.);
#181=ORIENTED_EDGE('',*,*,#180,.F.);
#183=ORIENTED_EDGE('',*,*,#182,.T.);
#184=ORIENTED_EDGE('',*,*,#166,.F.);
#185=ORIENTED_EDGE('',*,*,#104,.F.);
#186=ORIENTED_EDGE('',*,*,#120,.T.);
#187=EDGE_LOOP('',(#179,#181,#183,#184,#185,#186));
#188=FACE_OUTER_BOUND('',#187,.F.);
#190=CARTESIAN_POINT('',(-7.52E-1,6.35E-1,8.990851870878E-1));
#191=DIRECTION('',(1.E0,0.E0,0.E0));
#192=DIRECTION('',(0.E0,0.E0,-1.E0));
#193=AXIS2_PLACEMENT_3D('',#190,#191,#192);
#194=PLANE('',#193);
#195=ORIENTED_EDGE('',*,*,#180,.T.);
#196=ORIENTED_EDGE('',*,*,#136,.T.);
#197=ORIENTED_EDGE('',*,*,#155,.T.);
#199=ORIENTED_EDGE('',*,*,#198,.F.);
#200=EDGE_LOOP('',(#195,#196,#197,#199));
#201=FACE_OUTER_BOUND('',#200,.F.);
#203=CARTESIAN_POINT('',(0.E0,6.35E-1,0.E0));
#204=DIRECTION('',(0.E0,1.E0,0.E0));
#205=DIRECTION('',(1.E0,0.E0,0.E0));
#206=AXIS2_PLACEMENT_3D('',#203,#204,#205);
#207=PLANE('',#206);
#208=ORIENTED_EDGE('',*,*,#198,.T.);
#209=ORIENTED_EDGE('',*,*,#153,.F.);
#210=ORIENTED_EDGE('',*,*,#168,.F.);
#211=ORIENTED_EDGE('',*,*,#182,.F.);
#212=EDGE_LOOP('',(#208,#209,#210,#211));
#213=FACE_OUTER_BOUND('',#212,.F.);
#215=CLOSED_SHELL('',(#112,#127,#142,#159,#173,#189,#202,#214));
#216=MANIFOLD_SOLID_BREP('',#215);
#217=DIRECTION('',(0.E0,0.E0,-1.E0));
#218=VECTOR('',#217,1.5748E0);
#219=CARTESIAN_POINT('',(-7.62E-1,6.35E-1,7.874E-1));
#220=LINE('',#219,#218);
#221=DIRECTION('',(1.E0,0.E0,0.E0));
#222=VECTOR('',#221,7.62E-1);
#223=CARTESIAN_POINT('',(-1.524E0,6.35E-1,7.874E-1));
#224=LINE('',#223,#222);
#225=DIRECTION('',(0.E0,0.E0,1.E0));
#226=VECTOR('',#225,1.5748E0);
#227=CARTESIAN_POINT('',(-1.524E0,6.35E-1,-7.874E-1));
#228=LINE('',#227,#226);
#229=DIRECTION('',(-1.E0,0.E0,0.E0));
#230=VECTOR('',#229,7.62E-1);
#231=CARTESIAN_POINT('',(-7.62E-1,6.35E-1,-7.874E-1));
#232=LINE('',#231,#230);
#233=DIRECTION('',(0.E0,0.E0,1.E0));
#234=VECTOR('',#233,1.5748E0);
#235=CARTESIAN_POINT('',(-7.62E-1,5.35E-1,-7.874E-1));
#236=LINE('',#235,#234);
#237=DIRECTION('',(0.E0,0.E0,1.E0));
#238=VECTOR('',#237,1.5748E0);
#239=CARTESIAN_POINT('',(-1.524E0,5.35E-1,-7.874E-1));
#240=LINE('',#239,#238);
#241=DIRECTION('',(0.E0,1.E0,0.E0));
#242=VECTOR('',#241,1.E-1);
#243=CARTESIAN_POINT('',(-1.524E0,5.35E-1,-7.874E-1));
#244=LINE('',#243,#242);
#245=DIRECTION('',(1.E0,0.E0,0.E0));
#246=VECTOR('',#245,7.62E-1);
#247=CARTESIAN_POINT('',(-1.524E0,5.35E-1,-7.874E-1));
#248=LINE('',#247,#246);
#249=DIRECTION('',(0.E0,-1.E0,0.E0));
#250=VECTOR('',#249,1.E-1);
#251=CARTESIAN_POINT('',(-7.62E-1,6.35E-1,-7.874E-1));
#252=LINE('',#251,#250);
#253=DIRECTION('',(1.E0,0.E0,0.E0));
#254=VECTOR('',#253,7.62E-1);
#255=CARTESIAN_POINT('',(-1.524E0,5.35E-1,7.874E-1));
#256=LINE('',#255,#254);
#257=DIRECTION('',(0.E0,1.E0,0.E0));
#258=VECTOR('',#257,1.E-1);
#259=CARTESIAN_POINT('',(-1.524E0,5.35E-1,7.874E-1));
#260=LINE('',#259,#258);
#261=DIRECTION('',(0.E0,-1.E0,0.E0));
#262=VECTOR('',#261,1.E-1);
#263=CARTESIAN_POINT('',(-7.62E-1,6.35E-1,7.874E-1));
#264=LINE('',#263,#262);
#265=CARTESIAN_POINT('',(-1.524E0,6.35E-1,-7.874E-1));
#266=CARTESIAN_POINT('',(-1.524E0,6.35E-1,7.874E-1));
#267=VERTEX_POINT('',#265);
#268=VERTEX_POINT('',#266);
#269=CARTESIAN_POINT('',(-7.62E-1,6.35E-1,7.874E-1));
#270=CARTESIAN_POINT('',(-7.62E-1,6.35E-1,-7.874E-1));
#271=VERTEX_POINT('',#269);
#272=VERTEX_POINT('',#270);
#273=CARTESIAN_POINT('',(-1.524E0,5.35E-1,-7.874E-1));
#274=CARTESIAN_POINT('',(-1.524E0,5.35E-1,7.874E-1));
#275=VERTEX_POINT('',#273);
#276=VERTEX_POINT('',#274);
#277=CARTESIAN_POINT('',(-7.62E-1,5.35E-1,7.874E-1));
#278=VERTEX_POINT('',#277);
#279=CARTESIAN_POINT('',(-7.62E-1,5.35E-1,-7.874E-1));
#280=VERTEX_POINT('',#279);
#281=CARTESIAN_POINT('',(0.E0,6.35E-1,0.E0));
#282=DIRECTION('',(0.E0,1.E0,0.E0));
#283=DIRECTION('',(1.E0,0.E0,0.E0));
#284=AXIS2_PLACEMENT_3D('',#281,#282,#283);
#285=PLANE('',#284);
#287=ORIENTED_EDGE('',*,*,#286,.F.);
#289=ORIENTED_EDGE('',*,*,#288,.F.);
#291=ORIENTED_EDGE('',*,*,#290,.F.);
#293=ORIENTED_EDGE('',*,*,#292,.F.);
#294=EDGE_LOOP('',(#287,#289,#291,#293));
#295=FACE_OUTER_BOUND('',#294,.F.);
#297=CARTESIAN_POINT('',(-7.62E-1,6.35E-1,-8.990851870878E-1));
#298=DIRECTION('',(-1.E0,0.E0,0.E0));
#299=DIRECTION('',(0.E0,0.E0,1.E0));
#300=AXIS2_PLACEMENT_3D('',#297,#298,#299);
#301=PLANE('',#300);
#303=ORIENTED_EDGE('',*,*,#302,.T.);
#305=ORIENTED_EDGE('',*,*,#304,.F.);
#306=ORIENTED_EDGE('',*,*,#286,.T.);
#308=ORIENTED_EDGE('',*,*,#307,.T.);
#309=EDGE_LOOP('',(#303,#305,#306,#308));
#310=FACE_OUTER_BOUND('',#309,.F.);
#312=CARTESIAN_POINT('',(-7.52E-1,5.35E-1,7.874E-1));
#313=DIRECTION('',(0.E0,1.E0,0.E0));
#314=DIRECTION('',(-1.E0,0.E0,0.E0));
#315=AXIS2_PLACEMENT_3D('',#312,#313,#314);
#316=PLANE('',#315);
#318=ORIENTED_EDGE('',*,*,#317,.T.);
#320=ORIENTED_EDGE('',*,*,#319,.T.);
#321=ORIENTED_EDGE('',*,*,#302,.F.);
#323=ORIENTED_EDGE('',*,*,#322,.F.);
#324=EDGE_LOOP('',(#318,#320,#321,#323));
#325=FACE_OUTER_BOUND('',#324,.F.);
#327=CARTESIAN_POINT('',(-1.524E0,0.E0,-7.874E-1));
#328=DIRECTION('',(-1.E0,0.E0,0.E0));
#329=DIRECTION('',(0.E0,0.E0,1.E0));
#330=AXIS2_PLACEMENT_3D('',#327,#328,#329);
#331=PLANE('',#330);
#332=ORIENTED_EDGE('',*,*,#317,.F.);
#334=ORIENTED_EDGE('',*,*,#333,.T.);
#335=ORIENTED_EDGE('',*,*,#290,.T.);
#337=ORIENTED_EDGE('',*,*,#336,.F.);
#338=EDGE_LOOP('',(#332,#334,#335,#337));
#339=FACE_OUTER_BOUND('',#338,.F.);
#341=CARTESIAN_POINT('',(1.524E0,0.E0,-7.874E-1));
#342=DIRECTION('',(0.E0,0.E0,-1.E0));
#343=DIRECTION('',(-1.E0,0.E0,0.E0));
#344=AXIS2_PLACEMENT_3D('',#341,#342,#343);
#345=PLANE('',#344);
#346=ORIENTED_EDGE('',*,*,#322,.T.);
#347=ORIENTED_EDGE('',*,*,#307,.F.);
#348=ORIENTED_EDGE('',*,*,#292,.T.);
#349=ORIENTED_EDGE('',*,*,#333,.F.);
#350=EDGE_LOOP('',(#346,#347,#348,#349));
#351=FACE_OUTER_BOUND('',#350,.F.);
#353=CARTESIAN_POINT('',(-1.524E0,0.E0,7.874E-1));
#354=DIRECTION('',(0.E0,0.E0,1.E0));
#355=DIRECTION('',(1.E0,0.E0,0.E0));
#356=AXIS2_PLACEMENT_3D('',#353,#354,#355);
#357=PLANE('',#356);
#358=ORIENTED_EDGE('',*,*,#319,.F.);
#359=ORIENTED_EDGE('',*,*,#336,.T.);
#360=ORIENTED_EDGE('',*,*,#288,.T.);
#361=ORIENTED_EDGE('',*,*,#304,.T.);
#362=EDGE_LOOP('',(#358,#359,#360,#361));
#363=FACE_OUTER_BOUND('',#362,.F.);
#365=CLOSED_SHELL('',(#296,#311,#326,#340,#352,#364));
#366=MANIFOLD_SOLID_BREP('',#365);
#368=DIMENSIONAL_EXPONENTS(0.E0,0.E0,0.E0,0.E0,0.E0,0.E0,0.E0);
#370=PLANE_ANGLE_MEASURE_WITH_UNIT(PLANE_ANGLE_MEASURE(1.745329251994E-2),#369);
#371=(CONVERSION_BASED_UNIT('DEGREE',#370)NAMED_UNIT(*)PLANE_ANGLE_UNIT());
#373=UNCERTAINTY_MEASURE_WITH_UNIT(LENGTH_MEASURE(1.502620324149E-4),#367,
'closure',
'Maximum model space distance between geometric entities at asserted connectivities');
#376=APPLICATION_CONTEXT(
'CONFIGURATION CONTROLLED 3D DESIGNS OF MECHANICAL PARTS AND ASSEMBLIES');
#377=APPLICATION_PROTOCOL_DEFINITION('international standard',
'config_control_design',1994,#376);
#378=DESIGN_CONTEXT('',#376,'design');
#379=MECHANICAL_CONTEXT('',#376,'mechanical');
#380=PRODUCT('CHF1206CNT','CHF1206CNT','NOT SPECIFIED',(#379));
#381=PRODUCT_DEFINITION_FORMATION_WITH_SPECIFIED_SOURCE('1','LAST_VERSION',#380,
.MADE.);
#385=PRODUCT_CATEGORY('part','');
#386=PRODUCT_RELATED_PRODUCT_CATEGORY('detail','',(#380));
#387=PRODUCT_CATEGORY_RELATIONSHIP('','',#385,#386);
#388=SECURITY_CLASSIFICATION_LEVEL('unclassified');
#389=SECURITY_CLASSIFICATION('','',#388);
#390=CC_DESIGN_SECURITY_CLASSIFICATION(#389,(#381));
#391=APPROVAL_STATUS('approved');
#392=APPROVAL(#391,'');
#393=CC_DESIGN_APPROVAL(#392,(#389,#381,#382));
#394=CALENDAR_DATE(112,17,8);
#395=COORDINATED_UNIVERSAL_TIME_OFFSET(7,0,.BEHIND.);
#396=LOCAL_TIME(16,21,5.E1,#395);
#397=DATE_AND_TIME(#394,#396);
#398=APPROVAL_DATE_TIME(#397,#392);
#399=DATE_TIME_ROLE('creation_date');
#400=CC_DESIGN_DATE_AND_TIME_ASSIGNMENT(#397,#399,(#382));
#401=DATE_TIME_ROLE('classification_date');
#402=CC_DESIGN_DATE_AND_TIME_ASSIGNMENT(#397,#401,(#389));
#403=PERSON('UNSPECIFIED','UNSPECIFIED',$,$,$,$);
#404=ORGANIZATION('UNSPECIFIED','UNSPECIFIED','UNSPECIFIED');
#405=PERSON_AND_ORGANIZATION(#403,#404);
#406=APPROVAL_ROLE('approver');
#407=APPROVAL_PERSON_ORGANIZATION(#405,#392,#406);
#408=PERSON_AND_ORGANIZATION_ROLE('creator');
#409=CC_DESIGN_PERSON_AND_ORGANIZATION_ASSIGNMENT(#405,#408,(#381,#382));
#410=PERSON_AND_ORGANIZATION_ROLE('design_supplier');
#411=CC_DESIGN_PERSON_AND_ORGANIZATION_ASSIGNMENT(#405,#410,(#381));
#412=PERSON_AND_ORGANIZATION_ROLE('classification_officer');
#413=CC_DESIGN_PERSON_AND_ORGANIZATION_ASSIGNMENT(#405,#412,(#389));
#414=PERSON_AND_ORGANIZATION_ROLE('design_owner');
#415=CC_DESIGN_PERSON_AND_ORGANIZATION_ASSIGNMENT(#405,#414,(#380));
#102=EDGE_CURVE('',#75,#76,#4,.T.);
#104=EDGE_CURVE('',#76,#78,#8,.T.);
#106=EDGE_CURVE('',#78,#80,#12,.T.);
#108=EDGE_CURVE('',#80,#75,#16,.T.);
#112=ADVANCED_FACE('',(#111),#101,.F.);
#118=EDGE_CURVE('',#91,#92,#20,.T.);
#120=EDGE_CURVE('',#76,#92,#44,.T.);
#123=EDGE_CURVE('',#75,#91,#24,.T.);
#127=ADVANCED_FACE('',(#126),#117,.T.);
#134=EDGE_CURVE('',#91,#96,#28,.T.);
#136=EDGE_CURVE('',#94,#96,#52,.T.);
#138=EDGE_CURVE('',#92,#94,#40,.T.);
#142=ADVANCED_FACE('',(#141),#132,.F.);
#151=EDGE_CURVE('',#80,#84,#32,.T.);
#153=EDGE_CURVE('',#84,#88,#64,.T.);
#155=EDGE_CURVE('',#96,#88,#56,.T.);
#159=ADVANCED_FACE('',(#158),#147,.T.);
#166=EDGE_CURVE('',#78,#83,#36,.T.);
#168=EDGE_CURVE('',#83,#84,#68,.T.);
#173=ADVANCED_FACE('',(#172),#164,.T.);
#180=EDGE_CURVE('',#87,#94,#48,.T.);
#182=EDGE_CURVE('',#87,#83,#72,.T.);
#189=ADVANCED_FACE('',(#188),#178,.T.);
#198=EDGE_CURVE('',#87,#88,#60,.T.);
#202=ADVANCED_FACE('',(#201),#194,.F.);
#214=ADVANCED_FACE('',(#213),#207,.T.);
#286=EDGE_CURVE('',#271,#272,#220,.T.);
#288=EDGE_CURVE('',#268,#271,#224,.T.);
#290=EDGE_CURVE('',#267,#268,#228,.T.);
#292=EDGE_CURVE('',#272,#267,#232,.T.);
#296=ADVANCED_FACE('',(#295),#285,.T.);
#302=EDGE_CURVE('',#280,#278,#236,.T.);
#304=EDGE_CURVE('',#271,#278,#264,.T.);
#307=EDGE_CURVE('',#272,#280,#252,.T.);
#311=ADVANCED_FACE('',(#310),#301,.F.);
#317=EDGE_CURVE('',#275,#276,#240,.T.);
#319=EDGE_CURVE('',#276,#278,#256,.T.);
#322=EDGE_CURVE('',#275,#280,#248,.T.);
#326=ADVANCED_FACE('',(#325),#316,.F.);
#333=EDGE_CURVE('',#275,#267,#244,.T.);
#336=EDGE_CURVE('',#276,#268,#260,.T.);
#340=ADVANCED_FACE('',(#339),#331,.T.);
#352=ADVANCED_FACE('',(#351),#345,.T.);
#364=ADVANCED_FACE('',(#363),#357,.T.);
#367=(LENGTH_UNIT()NAMED_UNIT(*)SI_UNIT(.MILLI.,.METRE.));
#369=(NAMED_UNIT(*)PLANE_ANGLE_UNIT()SI_UNIT($,.RADIAN.));
#372=(NAMED_UNIT(*)SI_UNIT($,.STERADIAN.)SOLID_ANGLE_UNIT());
#374=(GEOMETRIC_REPRESENTATION_CONTEXT(3)GLOBAL_UNCERTAINTY_ASSIGNED_CONTEXT((
#373))GLOBAL_UNIT_ASSIGNED_CONTEXT((#367,#371,#372))REPRESENTATION_CONTEXT
('ID1','3'));
#375=ADVANCED_BREP_SHAPE_REPRESENTATION('',(#216,#366),#374);
#382=PRODUCT_DEFINITION('design','',#381,#378);
#383=PRODUCT_DEFINITION_SHAPE('','SHAPE FOR CHF1206CNT.',#382);
#384=SHAPE_DEFINITION_REPRESENTATION(#383,#375);
ENDSEC;
END-ISO-10303-21;
