ISO-10303-21;
HEADER;
FILE_DESCRIPTION((''),'2;1');
FILE_NAME('CHF3020CBF','2012-08-20T',('ryans'),('Bourns, Inc.'),
'PRO/ENGINEER BY PARAMETRIC TECHNOLOGY CORPORATION, 2010100',
'PRO/ENGINEER BY PARAMETRIC TECHNOLOGY CORPORATION, 2010100','');
FILE_SCHEMA(('CONFIG_CONTROL_DESIGN'));
ENDSEC;
DATA;
#1=DIRECTION('',(0.E0,0.E0,1.E0));
#2=VECTOR('',#1,7.62E0);
#3=CARTESIAN_POINT('',(-2.54E0,0.E0,-3.81E0));
#4=LINE('',#3,#2);
#5=DIRECTION('',(1.E0,0.E0,0.E0));
#6=VECTOR('',#5,5.08E0);
#7=CARTESIAN_POINT('',(-2.54E0,0.E0,3.81E0));
#8=LINE('',#7,#6);
#9=DIRECTION('',(0.E0,0.E0,-1.E0));
#10=VECTOR('',#9,7.62E0);
#11=CARTESIAN_POINT('',(2.54E0,0.E0,3.81E0));
#12=LINE('',#11,#10);
#13=DIRECTION('',(-1.E0,0.E0,0.E0));
#14=VECTOR('',#13,5.08E0);
#15=CARTESIAN_POINT('',(2.54E0,0.E0,-3.81E0));
#16=LINE('',#15,#14);
#17=CARTESIAN_POINT('',(0.E0,0.E0,1.27E0));
#18=DIRECTION('',(0.E0,1.E0,0.E0));
#19=DIRECTION('',(1.E0,0.E0,0.E0));
#20=AXIS2_PLACEMENT_3D('',#17,#18,#19);
#22=CARTESIAN_POINT('',(0.E0,0.E0,1.27E0));
#23=DIRECTION('',(0.E0,1.E0,0.E0));
#24=DIRECTION('',(-1.E0,0.E0,0.E0));
#25=AXIS2_PLACEMENT_3D('',#22,#23,#24);
#27=DIRECTION('',(0.E0,0.E0,-1.E0));
#28=VECTOR('',#27,1.E0);
#29=CARTESIAN_POINT('',(-2.54E0,2.57E0,-2.04E0));
#30=LINE('',#29,#28);
#31=DIRECTION('',(0.E0,1.E0,0.E0));
#32=VECTOR('',#31,1.E-1);
#33=CARTESIAN_POINT('',(-2.54E0,2.47E0,-3.04E0));
#34=LINE('',#33,#32);
#35=DIRECTION('',(0.E0,0.E0,-1.E0));
#36=VECTOR('',#35,1.E0);
#37=CARTESIAN_POINT('',(-2.54E0,2.47E0,-2.04E0));
#38=LINE('',#37,#36);
#39=DIRECTION('',(0.E0,1.E0,0.E0));
#40=VECTOR('',#39,1.E-1);
#41=CARTESIAN_POINT('',(-2.54E0,2.47E0,-2.04E0));
#42=LINE('',#41,#40);
#43=DIRECTION('',(0.E0,1.E0,0.E0));
#44=VECTOR('',#43,3.7E0);
#45=CARTESIAN_POINT('',(2.54E0,0.E0,-3.81E0));
#46=LINE('',#45,#44);
#47=DIRECTION('',(0.E0,-1.E0,0.E0));
#48=VECTOR('',#47,3.7E0);
#49=CARTESIAN_POINT('',(-2.54E0,3.7E0,-3.81E0));
#50=LINE('',#49,#48);
#51=DIRECTION('',(0.E0,1.E0,0.E0));
#52=VECTOR('',#51,2.13E0);
#53=CARTESIAN_POINT('',(2.54E0,1.57E0,-1.27E0));
#54=LINE('',#53,#52);
#55=DIRECTION('',(0.E0,1.E0,0.E0));
#56=VECTOR('',#55,1.57E0);
#57=CARTESIAN_POINT('',(2.54E0,0.E0,3.81E0));
#58=LINE('',#57,#56);
#59=DIRECTION('',(0.E0,0.E0,-1.E0));
#60=VECTOR('',#59,1.E0);
#61=CARTESIAN_POINT('',(2.54E0,2.57E0,-2.04E0));
#62=LINE('',#61,#60);
#63=DIRECTION('',(0.E0,1.E0,0.E0));
#64=VECTOR('',#63,1.E-1);
#65=CARTESIAN_POINT('',(2.54E0,2.47E0,-2.04E0));
#66=LINE('',#65,#64);
#67=DIRECTION('',(0.E0,0.E0,-1.E0));
#68=VECTOR('',#67,1.E0);
#69=CARTESIAN_POINT('',(2.54E0,2.47E0,-2.04E0));
#70=LINE('',#69,#68);
#71=DIRECTION('',(0.E0,1.E0,0.E0));
#72=VECTOR('',#71,1.E-1);
#73=CARTESIAN_POINT('',(2.54E0,2.47E0,-3.04E0));
#74=LINE('',#73,#72);
#75=DIRECTION('',(1.E0,0.E0,0.E0));
#76=VECTOR('',#75,5.08E0);
#77=CARTESIAN_POINT('',(-2.54E0,1.57E0,-1.27E0));
#78=LINE('',#77,#76);
#79=DIRECTION('',(0.E0,0.E0,-1.E0));
#80=VECTOR('',#79,5.08E0);
#81=CARTESIAN_POINT('',(2.54E0,1.57E0,3.81E0));
#82=LINE('',#81,#80);
#83=DIRECTION('',(1.E0,0.E0,0.E0));
#84=VECTOR('',#83,5.08E0);
#85=CARTESIAN_POINT('',(-2.54E0,1.57E0,3.81E0));
#86=LINE('',#85,#84);
#87=DIRECTION('',(0.E0,0.E0,1.E0));
#88=VECTOR('',#87,5.08E0);
#89=CARTESIAN_POINT('',(-2.54E0,1.57E0,-1.27E0));
#90=LINE('',#89,#88);
#91=CARTESIAN_POINT('',(0.E0,1.57E0,1.27E0));
#92=DIRECTION('',(0.E0,1.E0,0.E0));
#93=DIRECTION('',(1.E0,0.E0,0.E0));
#94=AXIS2_PLACEMENT_3D('',#91,#92,#93);
#96=CARTESIAN_POINT('',(0.E0,1.57E0,1.27E0));
#97=DIRECTION('',(0.E0,1.E0,0.E0));
#98=DIRECTION('',(-1.E0,0.E0,0.E0));
#99=AXIS2_PLACEMENT_3D('',#96,#97,#98);
#101=DIRECTION('',(0.E0,1.E0,0.E0));
#102=VECTOR('',#101,2.13E0);
#103=CARTESIAN_POINT('',(-2.54E0,1.57E0,-1.27E0));
#104=LINE('',#103,#102);
#105=DIRECTION('',(0.E0,0.E0,1.E0));
#106=VECTOR('',#105,2.54E0);
#107=CARTESIAN_POINT('',(-2.54E0,3.7E0,-3.81E0));
#108=LINE('',#107,#106);
#109=DIRECTION('',(-1.E0,0.E0,0.E0));
#110=VECTOR('',#109,5.08E0);
#111=CARTESIAN_POINT('',(2.54E0,3.7E0,-3.81E0));
#112=LINE('',#111,#110);
#113=DIRECTION('',(0.E0,0.E0,-1.E0));
#114=VECTOR('',#113,2.54E0);
#115=CARTESIAN_POINT('',(2.54E0,3.7E0,-1.27E0));
#116=LINE('',#115,#114);
#117=DIRECTION('',(1.E0,0.E0,0.E0));
#118=VECTOR('',#117,5.08E0);
#119=CARTESIAN_POINT('',(-2.54E0,3.7E0,-1.27E0));
#120=LINE('',#119,#118);
#121=DIRECTION('',(0.E0,1.E0,0.E0));
#122=VECTOR('',#121,1.57E0);
#123=CARTESIAN_POINT('',(-2.54E0,0.E0,3.81E0));
#124=LINE('',#123,#122);
#125=DIRECTION('',(0.E0,-1.E0,0.E0));
#126=VECTOR('',#125,1.57E0);
#127=CARTESIAN_POINT('',(1.5E0,1.57E0,1.27E0));
#128=LINE('',#127,#126);
#129=DIRECTION('',(0.E0,-1.E0,0.E0));
#130=VECTOR('',#129,1.57E0);
#131=CARTESIAN_POINT('',(-1.5E0,1.57E0,1.27E0));
#132=LINE('',#131,#130);
#133=DIRECTION('',(1.E0,0.E0,0.E0));
#134=VECTOR('',#133,6.5E0);
#135=CARTESIAN_POINT('',(-9.04E0,2.57E0,-2.04E0));
#136=LINE('',#135,#134);
#137=DIRECTION('',(0.E0,0.E0,1.E0));
#138=VECTOR('',#137,1.E0);
#139=CARTESIAN_POINT('',(-9.04E0,2.57E0,-3.04E0));
#140=LINE('',#139,#138);
#141=DIRECTION('',(-1.E0,0.E0,0.E0));
#142=VECTOR('',#141,6.5E0);
#143=CARTESIAN_POINT('',(-2.54E0,2.57E0,-3.04E0));
#144=LINE('',#143,#142);
#145=DIRECTION('',(-1.E0,0.E0,0.E0));
#146=VECTOR('',#145,6.5E0);
#147=CARTESIAN_POINT('',(9.04E0,2.57E0,-3.04E0));
#148=LINE('',#147,#146);
#149=DIRECTION('',(0.E0,0.E0,-1.E0));
#150=VECTOR('',#149,1.E0);
#151=CARTESIAN_POINT('',(9.04E0,2.57E0,-2.04E0));
#152=LINE('',#151,#150);
#153=DIRECTION('',(1.E0,0.E0,0.E0));
#154=VECTOR('',#153,6.5E0);
#155=CARTESIAN_POINT('',(2.54E0,2.57E0,-2.04E0));
#156=LINE('',#155,#154);
#157=DIRECTION('',(0.E0,-1.E0,0.E0));
#158=VECTOR('',#157,1.E-1);
#159=CARTESIAN_POINT('',(-9.04E0,2.57E0,-2.04E0));
#160=LINE('',#159,#158);
#161=DIRECTION('',(-1.E0,0.E0,0.E0));
#162=VECTOR('',#161,6.5E0);
#163=CARTESIAN_POINT('',(-2.54E0,2.47E0,-3.04E0));
#164=LINE('',#163,#162);
#165=DIRECTION('',(0.E0,0.E0,1.E0));
#166=VECTOR('',#165,1.E0);
#167=CARTESIAN_POINT('',(-9.04E0,2.47E0,-3.04E0));
#168=LINE('',#167,#166);
#169=DIRECTION('',(1.E0,0.E0,0.E0));
#170=VECTOR('',#169,6.5E0);
#171=CARTESIAN_POINT('',(-9.04E0,2.47E0,-2.04E0));
#172=LINE('',#171,#170);
#173=DIRECTION('',(1.E0,0.E0,0.E0));
#174=VECTOR('',#173,6.5E0);
#175=CARTESIAN_POINT('',(2.54E0,2.47E0,-2.04E0));
#176=LINE('',#175,#174);
#177=DIRECTION('',(0.E0,0.E0,-1.E0));
#178=VECTOR('',#177,1.E0);
#179=CARTESIAN_POINT('',(9.04E0,2.47E0,-2.04E0));
#180=LINE('',#179,#178);
#181=DIRECTION('',(-1.E0,0.E0,0.E0));
#182=VECTOR('',#181,6.5E0);
#183=CARTESIAN_POINT('',(9.04E0,2.47E0,-3.04E0));
#184=LINE('',#183,#182);
#185=DIRECTION('',(0.E0,-1.E0,0.E0));
#186=VECTOR('',#185,1.E-1);
#187=CARTESIAN_POINT('',(9.04E0,2.57E0,-3.04E0));
#188=LINE('',#187,#186);
#189=DIRECTION('',(0.E0,-1.E0,0.E0));
#190=VECTOR('',#189,1.E-1);
#191=CARTESIAN_POINT('',(-9.04E0,2.57E0,-3.04E0));
#192=LINE('',#191,#190);
#193=DIRECTION('',(0.E0,-1.E0,0.E0));
#194=VECTOR('',#193,1.E-1);
#195=CARTESIAN_POINT('',(9.04E0,2.57E0,-2.04E0));
#196=LINE('',#195,#194);
#197=CARTESIAN_POINT('',(-2.54E0,0.E0,-3.81E0));
#198=CARTESIAN_POINT('',(-2.54E0,0.E0,3.81E0));
#199=VERTEX_POINT('',#197);
#200=VERTEX_POINT('',#198);
#201=CARTESIAN_POINT('',(2.54E0,0.E0,3.81E0));
#202=VERTEX_POINT('',#201);
#203=CARTESIAN_POINT('',(2.54E0,0.E0,-3.81E0));
#204=VERTEX_POINT('',#203);
#205=CARTESIAN_POINT('',(-2.54E0,1.57E0,3.81E0));
#206=CARTESIAN_POINT('',(2.54E0,1.57E0,3.81E0));
#207=VERTEX_POINT('',#205);
#208=VERTEX_POINT('',#206);
#209=CARTESIAN_POINT('',(-2.54E0,3.7E0,-3.81E0));
#210=CARTESIAN_POINT('',(-2.54E0,3.7E0,-1.27E0));
#211=VERTEX_POINT('',#209);
#212=VERTEX_POINT('',#210);
#213=CARTESIAN_POINT('',(2.54E0,3.7E0,-1.27E0));
#214=VERTEX_POINT('',#213);
#215=CARTESIAN_POINT('',(2.54E0,3.7E0,-3.81E0));
#216=VERTEX_POINT('',#215);
#217=CARTESIAN_POINT('',(-2.54E0,1.57E0,-1.27E0));
#218=CARTESIAN_POINT('',(2.54E0,1.57E0,-1.27E0));
#219=VERTEX_POINT('',#217);
#220=VERTEX_POINT('',#218);
#221=CARTESIAN_POINT('',(-9.04E0,2.57E0,-3.04E0));
#222=CARTESIAN_POINT('',(-9.04E0,2.57E0,-2.04E0));
#223=VERTEX_POINT('',#221);
#224=VERTEX_POINT('',#222);
#225=CARTESIAN_POINT('',(9.04E0,2.57E0,-2.04E0));
#226=CARTESIAN_POINT('',(9.04E0,2.57E0,-3.04E0));
#227=VERTEX_POINT('',#225);
#228=VERTEX_POINT('',#226);
#229=CARTESIAN_POINT('',(-9.04E0,2.47E0,-3.04E0));
#230=CARTESIAN_POINT('',(-9.04E0,2.47E0,-2.04E0));
#231=VERTEX_POINT('',#229);
#232=VERTEX_POINT('',#230);
#233=CARTESIAN_POINT('',(9.04E0,2.47E0,-2.04E0));
#234=CARTESIAN_POINT('',(9.04E0,2.47E0,-3.04E0));
#235=VERTEX_POINT('',#233);
#236=VERTEX_POINT('',#234);
#237=CARTESIAN_POINT('',(-2.54E0,2.57E0,-2.04E0));
#238=CARTESIAN_POINT('',(-2.54E0,2.57E0,-3.04E0));
#239=VERTEX_POINT('',#237);
#240=VERTEX_POINT('',#238);
#241=CARTESIAN_POINT('',(-2.54E0,2.47E0,-2.04E0));
#242=CARTESIAN_POINT('',(-2.54E0,2.47E0,-3.04E0));
#243=VERTEX_POINT('',#241);
#244=VERTEX_POINT('',#242);
#245=CARTESIAN_POINT('',(2.54E0,2.57E0,-2.04E0));
#246=CARTESIAN_POINT('',(2.54E0,2.57E0,-3.04E0));
#247=VERTEX_POINT('',#245);
#248=VERTEX_POINT('',#246);
#249=CARTESIAN_POINT('',(2.54E0,2.47E0,-2.04E0));
#250=CARTESIAN_POINT('',(2.54E0,2.47E0,-3.04E0));
#251=VERTEX_POINT('',#249);
#252=VERTEX_POINT('',#250);
#253=CARTESIAN_POINT('',(1.5E0,0.E0,1.27E0));
#254=CARTESIAN_POINT('',(-1.5E0,0.E0,1.27E0));
#255=VERTEX_POINT('',#253);
#256=VERTEX_POINT('',#254);
#257=CARTESIAN_POINT('',(1.5E0,1.57E0,1.27E0));
#258=CARTESIAN_POINT('',(-1.5E0,1.57E0,1.27E0));
#259=VERTEX_POINT('',#257);
#260=VERTEX_POINT('',#258);
#261=CARTESIAN_POINT('',(0.E0,0.E0,0.E0));
#262=DIRECTION('',(0.E0,1.E0,0.E0));
#263=DIRECTION('',(1.E0,0.E0,0.E0));
#264=AXIS2_PLACEMENT_3D('',#261,#262,#263);
#265=PLANE('',#264);
#267=ORIENTED_EDGE('',*,*,#266,.T.);
#269=ORIENTED_EDGE('',*,*,#268,.T.);
#271=ORIENTED_EDGE('',*,*,#270,.T.);
#273=ORIENTED_EDGE('',*,*,#272,.T.);
#274=EDGE_LOOP('',(#267,#269,#271,#273));
#275=FACE_OUTER_BOUND('',#274,.F.);
#277=ORIENTED_EDGE('',*,*,#276,.F.);
#279=ORIENTED_EDGE('',*,*,#278,.F.);
#280=EDGE_LOOP('',(#277,#279));
#281=FACE_BOUND('',#280,.F.);
#283=CARTESIAN_POINT('',(-2.54E0,0.E0,-3.81E0));
#284=DIRECTION('',(-1.E0,0.E0,0.E0));
#285=DIRECTION('',(0.E0,0.E0,1.E0));
#286=AXIS2_PLACEMENT_3D('',#283,#284,#285);
#287=PLANE('',#286);
#289=ORIENTED_EDGE('',*,*,#288,.F.);
#291=ORIENTED_EDGE('',*,*,#290,.T.);
#293=ORIENTED_EDGE('',*,*,#292,.F.);
#295=ORIENTED_EDGE('',*,*,#294,.T.);
#297=ORIENTED_EDGE('',*,*,#296,.F.);
#298=ORIENTED_EDGE('',*,*,#266,.F.);
#299=EDGE_LOOP('',(#289,#291,#293,#295,#297,#298));
#300=FACE_OUTER_BOUND('',#299,.F.);
#302=ORIENTED_EDGE('',*,*,#301,.T.);
#304=ORIENTED_EDGE('',*,*,#303,.F.);
#306=ORIENTED_EDGE('',*,*,#305,.F.);
#308=ORIENTED_EDGE('',*,*,#307,.T.);
#309=EDGE_LOOP('',(#302,#304,#306,#308));
#310=FACE_BOUND('',#309,.F.);
#312=CARTESIAN_POINT('',(2.54E0,0.E0,-3.81E0));
#313=DIRECTION('',(0.E0,0.E0,-1.E0));
#314=DIRECTION('',(-1.E0,0.E0,0.E0));
#315=AXIS2_PLACEMENT_3D('',#312,#313,#314);
#316=PLANE('',#315);
#318=ORIENTED_EDGE('',*,*,#317,.T.);
#320=ORIENTED_EDGE('',*,*,#319,.T.);
#321=ORIENTED_EDGE('',*,*,#288,.T.);
#322=ORIENTED_EDGE('',*,*,#272,.F.);
#323=EDGE_LOOP('',(#318,#320,#321,#322));
#324=FACE_OUTER_BOUND('',#323,.F.);
#326=CARTESIAN_POINT('',(2.54E0,0.E0,3.81E0));
#327=DIRECTION('',(1.E0,0.E0,0.E0));
#328=DIRECTION('',(0.E0,0.E0,-1.E0));
#329=AXIS2_PLACEMENT_3D('',#326,#327,#328);
#330=PLANE('',#329);
#332=ORIENTED_EDGE('',*,*,#331,.T.);
#334=ORIENTED_EDGE('',*,*,#333,.T.);
#336=ORIENTED_EDGE('',*,*,#335,.T.);
#337=ORIENTED_EDGE('',*,*,#317,.F.);
#338=ORIENTED_EDGE('',*,*,#270,.F.);
#340=ORIENTED_EDGE('',*,*,#339,.T.);
#341=EDGE_LOOP('',(#332,#334,#336,#337,#338,#340));
#342=FACE_OUTER_BOUND('',#341,.F.);
#344=ORIENTED_EDGE('',*,*,#343,.F.);
#346=ORIENTED_EDGE('',*,*,#345,.F.);
#348=ORIENTED_EDGE('',*,*,#347,.T.);
#350=ORIENTED_EDGE('',*,*,#349,.T.);
#351=EDGE_LOOP('',(#344,#346,#348,#350));
#352=FACE_BOUND('',#351,.F.);
#354=CARTESIAN_POINT('',(0.E0,1.57E0,0.E0));
#355=DIRECTION('',(0.E0,1.E0,0.E0));
#356=DIRECTION('',(1.E0,0.E0,0.E0));
#357=AXIS2_PLACEMENT_3D('',#354,#355,#356);
#358=PLANE('',#357);
#360=ORIENTED_EDGE('',*,*,#359,.T.);
#361=ORIENTED_EDGE('',*,*,#331,.F.);
#363=ORIENTED_EDGE('',*,*,#362,.F.);
#364=ORIENTED_EDGE('',*,*,#294,.F.);
#365=EDGE_LOOP('',(#360,#361,#363,#364));
#366=FACE_OUTER_BOUND('',#365,.F.);
#368=ORIENTED_EDGE('',*,*,#367,.T.);
#370=ORIENTED_EDGE('',*,*,#369,.T.);
#371=EDGE_LOOP('',(#368,#370));
#372=FACE_BOUND('',#371,.F.);
#374=CARTESIAN_POINT('',(-2.54E0,0.E0,-1.27E0));
#375=DIRECTION('',(0.E0,0.E0,1.E0));
#376=DIRECTION('',(1.E0,0.E0,0.E0));
#377=AXIS2_PLACEMENT_3D('',#374,#375,#376);
#378=PLANE('',#377);
#379=ORIENTED_EDGE('',*,*,#359,.F.);
#380=ORIENTED_EDGE('',*,*,#292,.T.);
#382=ORIENTED_EDGE('',*,*,#381,.T.);
#383=ORIENTED_EDGE('',*,*,#333,.F.);
#384=EDGE_LOOP('',(#379,#380,#382,#383));
#385=FACE_OUTER_BOUND('',#384,.F.);
#387=CARTESIAN_POINT('',(0.E0,3.7E0,0.E0));
#388=DIRECTION('',(0.E0,1.E0,0.E0));
#389=DIRECTION('',(1.E0,0.E0,0.E0));
#390=AXIS2_PLACEMENT_3D('',#387,#388,#389);
#391=PLANE('',#390);
#392=ORIENTED_EDGE('',*,*,#290,.F.);
#393=ORIENTED_EDGE('',*,*,#319,.F.);
#394=ORIENTED_EDGE('',*,*,#335,.F.);
#395=ORIENTED_EDGE('',*,*,#381,.F.);
#396=EDGE_LOOP('',(#392,#393,#394,#395));
#397=FACE_OUTER_BOUND('',#396,.F.);
#399=CARTESIAN_POINT('',(-2.54E0,0.E0,3.81E0));
#400=DIRECTION('',(0.E0,0.E0,1.E0));
#401=DIRECTION('',(1.E0,0.E0,0.E0));
#402=AXIS2_PLACEMENT_3D('',#399,#400,#401);
#403=PLANE('',#402);
#404=ORIENTED_EDGE('',*,*,#268,.F.);
#405=ORIENTED_EDGE('',*,*,#296,.T.);
#406=ORIENTED_EDGE('',*,*,#362,.T.);
#407=ORIENTED_EDGE('',*,*,#339,.F.);
#408=EDGE_LOOP('',(#404,#405,#406,#407));
#409=FACE_OUTER_BOUND('',#408,.F.);
#411=CARTESIAN_POINT('',(0.E0,1.57E0,1.27E0));
#412=DIRECTION('',(0.E0,1.E0,0.E0));
#413=DIRECTION('',(1.E0,0.E0,0.E0));
#414=AXIS2_PLACEMENT_3D('',#411,#412,#413);
#415=CYLINDRICAL_SURFACE('',#414,1.5E0);
#416=ORIENTED_EDGE('',*,*,#276,.T.);
#418=ORIENTED_EDGE('',*,*,#417,.F.);
#419=ORIENTED_EDGE('',*,*,#367,.F.);
#421=ORIENTED_EDGE('',*,*,#420,.T.);
#422=EDGE_LOOP('',(#416,#418,#419,#421));
#423=FACE_OUTER_BOUND('',#422,.F.);
#425=CARTESIAN_POINT('',(0.E0,1.57E0,1.27E0));
#426=DIRECTION('',(0.E0,1.E0,0.E0));
#427=DIRECTION('',(1.E0,0.E0,0.E0));
#428=AXIS2_PLACEMENT_3D('',#425,#426,#427);
#429=CYLINDRICAL_SURFACE('',#428,1.5E0);
#430=ORIENTED_EDGE('',*,*,#278,.T.);
#431=ORIENTED_EDGE('',*,*,#420,.F.);
#432=ORIENTED_EDGE('',*,*,#369,.F.);
#433=ORIENTED_EDGE('',*,*,#417,.T.);
#434=EDGE_LOOP('',(#430,#431,#432,#433));
#435=FACE_OUTER_BOUND('',#434,.F.);
#437=CARTESIAN_POINT('',(0.E0,2.57E0,0.E0));
#438=DIRECTION('',(0.E0,1.E0,0.E0));
#439=DIRECTION('',(1.E0,0.E0,0.E0));
#440=AXIS2_PLACEMENT_3D('',#437,#438,#439);
#441=PLANE('',#440);
#442=ORIENTED_EDGE('',*,*,#301,.F.);
#444=ORIENTED_EDGE('',*,*,#443,.F.);
#446=ORIENTED_EDGE('',*,*,#445,.F.);
#448=ORIENTED_EDGE('',*,*,#447,.F.);
#449=EDGE_LOOP('',(#442,#444,#446,#448));
#450=FACE_OUTER_BOUND('',#449,.F.);
#452=CARTESIAN_POINT('',(0.E0,2.57E0,0.E0));
#453=DIRECTION('',(0.E0,1.E0,0.E0));
#454=DIRECTION('',(1.E0,0.E0,0.E0));
#455=AXIS2_PLACEMENT_3D('',#452,#453,#454);
#456=PLANE('',#455);
#457=ORIENTED_EDGE('',*,*,#343,.T.);
#459=ORIENTED_EDGE('',*,*,#458,.F.);
#461=ORIENTED_EDGE('',*,*,#460,.F.);
#463=ORIENTED_EDGE('',*,*,#462,.F.);
#464=EDGE_LOOP('',(#457,#459,#461,#463));
#465=FACE_OUTER_BOUND('',#464,.F.);
#467=CARTESIAN_POINT('',(-9.04E0,2.57E0,-2.04E0));
#468=DIRECTION('',(0.E0,0.E0,1.E0));
#469=DIRECTION('',(1.E0,0.E0,0.E0));
#470=AXIS2_PLACEMENT_3D('',#467,#468,#469);
#471=PLANE('',#470);
#472=ORIENTED_EDGE('',*,*,#307,.F.);
#474=ORIENTED_EDGE('',*,*,#473,.F.);
#476=ORIENTED_EDGE('',*,*,#475,.F.);
#477=ORIENTED_EDGE('',*,*,#443,.T.);
#478=EDGE_LOOP('',(#472,#474,#476,#477));
#479=FACE_OUTER_BOUND('',#478,.F.);
#481=CARTESIAN_POINT('',(-9.04E0,2.57E0,-2.04E0));
#482=DIRECTION('',(0.E0,0.E0,1.E0));
#483=DIRECTION('',(1.E0,0.E0,0.E0));
#484=AXIS2_PLACEMENT_3D('',#481,#482,#483);
#485=PLANE('',#484);
#486=ORIENTED_EDGE('',*,*,#345,.T.);
#487=ORIENTED_EDGE('',*,*,#462,.T.);
#489=ORIENTED_EDGE('',*,*,#488,.T.);
#491=ORIENTED_EDGE('',*,*,#490,.F.);
#492=EDGE_LOOP('',(#486,#487,#489,#491));
#493=FACE_OUTER_BOUND('',#492,.F.);
#495=CARTESIAN_POINT('',(0.E0,2.47E0,0.E0));
#496=DIRECTION('',(0.E0,1.E0,0.E0));
#497=DIRECTION('',(1.E0,0.E0,0.E0));
#498=AXIS2_PLACEMENT_3D('',#495,#496,#497);
#499=PLANE('',#498);
#500=ORIENTED_EDGE('',*,*,#305,.T.);
#502=ORIENTED_EDGE('',*,*,#501,.T.);
#504=ORIENTED_EDGE('',*,*,#503,.T.);
#505=ORIENTED_EDGE('',*,*,#473,.T.);
#506=EDGE_LOOP('',(#500,#502,#504,#505));
#507=FACE_OUTER_BOUND('',#506,.F.);
#509=CARTESIAN_POINT('',(0.E0,2.47E0,0.E0));
#510=DIRECTION('',(0.E0,1.E0,0.E0));
#511=DIRECTION('',(1.E0,0.E0,0.E0));
#512=AXIS2_PLACEMENT_3D('',#509,#510,#511);
#513=PLANE('',#512);
#514=ORIENTED_EDGE('',*,*,#347,.F.);
#515=ORIENTED_EDGE('',*,*,#490,.T.);
#517=ORIENTED_EDGE('',*,*,#516,.T.);
#519=ORIENTED_EDGE('',*,*,#518,.T.);
#520=EDGE_LOOP('',(#514,#515,#517,#519));
#521=FACE_OUTER_BOUND('',#520,.F.);
#523=CARTESIAN_POINT('',(9.04E0,2.57E0,-3.04E0));
#524=DIRECTION('',(0.E0,0.E0,-1.E0));
#525=DIRECTION('',(-1.E0,0.E0,0.E0));
#526=AXIS2_PLACEMENT_3D('',#523,#524,#525);
#527=PLANE('',#526);
#528=ORIENTED_EDGE('',*,*,#303,.T.);
#529=ORIENTED_EDGE('',*,*,#447,.T.);
#531=ORIENTED_EDGE('',*,*,#530,.T.);
#532=ORIENTED_EDGE('',*,*,#501,.F.);
#533=EDGE_LOOP('',(#528,#529,#531,#532));
#534=FACE_OUTER_BOUND('',#533,.F.);
#536=CARTESIAN_POINT('',(9.04E0,2.57E0,-3.04E0));
#537=DIRECTION('',(0.E0,0.E0,-1.E0));
#538=DIRECTION('',(-1.E0,0.E0,0.E0));
#539=AXIS2_PLACEMENT_3D('',#536,#537,#538);
#540=PLANE('',#539);
#541=ORIENTED_EDGE('',*,*,#349,.F.);
#542=ORIENTED_EDGE('',*,*,#518,.F.);
#544=ORIENTED_EDGE('',*,*,#543,.F.);
#545=ORIENTED_EDGE('',*,*,#458,.T.);
#546=EDGE_LOOP('',(#541,#542,#544,#545));
#547=FACE_OUTER_BOUND('',#546,.F.);
#549=CARTESIAN_POINT('',(-9.04E0,2.57E0,-3.04E0));
#550=DIRECTION('',(-1.E0,0.E0,0.E0));
#551=DIRECTION('',(0.E0,0.E0,1.E0));
#552=AXIS2_PLACEMENT_3D('',#549,#550,#551);
#553=PLANE('',#552);
#554=ORIENTED_EDGE('',*,*,#445,.T.);
#555=ORIENTED_EDGE('',*,*,#475,.T.);
#556=ORIENTED_EDGE('',*,*,#503,.F.);
#557=ORIENTED_EDGE('',*,*,#530,.F.);
#558=EDGE_LOOP('',(#554,#555,#556,#557));
#559=FACE_OUTER_BOUND('',#558,.F.);
#561=CARTESIAN_POINT('',(9.04E0,2.57E0,-2.04E0));
#562=DIRECTION('',(1.E0,0.E0,0.E0));
#563=DIRECTION('',(0.E0,0.E0,-1.E0));
#564=AXIS2_PLACEMENT_3D('',#561,#562,#563);
#565=PLANE('',#564);
#566=ORIENTED_EDGE('',*,*,#460,.T.);
#567=ORIENTED_EDGE('',*,*,#543,.T.);
#568=ORIENTED_EDGE('',*,*,#516,.F.);
#569=ORIENTED_EDGE('',*,*,#488,.F.);
#570=EDGE_LOOP('',(#566,#567,#568,#569));
#571=FACE_OUTER_BOUND('',#570,.F.);
#573=CLOSED_SHELL('',(#282,#311,#325,#353,#373,#386,#398,#410,#424,#436,#451,
#466,#480,#494,#508,#522,#535,#548,#560,#572));
#574=MANIFOLD_SOLID_BREP('',#573);
#576=DIMENSIONAL_EXPONENTS(0.E0,0.E0,0.E0,0.E0,0.E0,0.E0,0.E0);
#578=PLANE_ANGLE_MEASURE_WITH_UNIT(PLANE_ANGLE_MEASURE(1.745329251994E-2),#577);
#579=(CONVERSION_BASED_UNIT('DEGREE',#578)NAMED_UNIT(*)PLANE_ANGLE_UNIT());
#581=UNCERTAINTY_MEASURE_WITH_UNIT(LENGTH_MEASURE(8.318830185500E-4),#575,
'closure',
'Maximum model space distance between geometric entities at asserted connectivities');
#584=APPLICATION_CONTEXT(
'CONFIGURATION CONTROLLED 3D DESIGNS OF MECHANICAL PARTS AND ASSEMBLIES');
#585=APPLICATION_PROTOCOL_DEFINITION('international standard',
'config_control_design',1994,#584);
#586=DESIGN_CONTEXT('',#584,'design');
#587=MECHANICAL_CONTEXT('',#584,'mechanical');
#588=PRODUCT('CHF3020CBF','CHF3020CBF','NOT SPECIFIED',(#587));
#589=PRODUCT_DEFINITION_FORMATION_WITH_SPECIFIED_SOURCE('1','LAST_VERSION',#588,
.MADE.);
#593=PRODUCT_CATEGORY('part','');
#594=PRODUCT_RELATED_PRODUCT_CATEGORY('detail','',(#588));
#595=PRODUCT_CATEGORY_RELATIONSHIP('','',#593,#594);
#596=SECURITY_CLASSIFICATION_LEVEL('unclassified');
#597=SECURITY_CLASSIFICATION('','',#596);
#598=CC_DESIGN_SECURITY_CLASSIFICATION(#597,(#589));
#599=APPROVAL_STATUS('approved');
#600=APPROVAL(#599,'');
#601=CC_DESIGN_APPROVAL(#600,(#597,#589,#590));
#602=CALENDAR_DATE(112,20,8);
#603=COORDINATED_UNIVERSAL_TIME_OFFSET(7,0,.BEHIND.);
#604=LOCAL_TIME(11,3,5.8E1,#603);
#605=DATE_AND_TIME(#602,#604);
#606=APPROVAL_DATE_TIME(#605,#600);
#607=DATE_TIME_ROLE('creation_date');
#608=CC_DESIGN_DATE_AND_TIME_ASSIGNMENT(#605,#607,(#590));
#609=DATE_TIME_ROLE('classification_date');
#610=CC_DESIGN_DATE_AND_TIME_ASSIGNMENT(#605,#609,(#597));
#611=PERSON('UNSPECIFIED','UNSPECIFIED',$,$,$,$);
#612=ORGANIZATION('UNSPECIFIED','UNSPECIFIED','UNSPECIFIED');
#613=PERSON_AND_ORGANIZATION(#611,#612);
#614=APPROVAL_ROLE('approver');
#615=APPROVAL_PERSON_ORGANIZATION(#613,#600,#614);
#616=PERSON_AND_ORGANIZATION_ROLE('creator');
#617=CC_DESIGN_PERSON_AND_ORGANIZATION_ASSIGNMENT(#613,#616,(#589,#590));
#618=PERSON_AND_ORGANIZATION_ROLE('design_supplier');
#619=CC_DESIGN_PERSON_AND_ORGANIZATION_ASSIGNMENT(#613,#618,(#589));
#620=PERSON_AND_ORGANIZATION_ROLE('classification_officer');
#621=CC_DESIGN_PERSON_AND_ORGANIZATION_ASSIGNMENT(#613,#620,(#597));
#622=PERSON_AND_ORGANIZATION_ROLE('design_owner');
#623=CC_DESIGN_PERSON_AND_ORGANIZATION_ASSIGNMENT(#613,#622,(#588));
#21=CIRCLE('',#20,1.5E0);
#26=CIRCLE('',#25,1.5E0);
#95=CIRCLE('',#94,1.5E0);
#100=CIRCLE('',#99,1.5E0);
#266=EDGE_CURVE('',#199,#200,#4,.T.);
#268=EDGE_CURVE('',#200,#202,#8,.T.);
#270=EDGE_CURVE('',#202,#204,#12,.T.);
#272=EDGE_CURVE('',#204,#199,#16,.T.);
#276=EDGE_CURVE('',#255,#256,#21,.T.);
#278=EDGE_CURVE('',#256,#255,#26,.T.);
#282=ADVANCED_FACE('',(#275,#281),#265,.F.);
#288=EDGE_CURVE('',#211,#199,#50,.T.);
#290=EDGE_CURVE('',#211,#212,#108,.T.);
#292=EDGE_CURVE('',#219,#212,#104,.T.);
#294=EDGE_CURVE('',#219,#207,#90,.T.);
#296=EDGE_CURVE('',#200,#207,#124,.T.);
#301=EDGE_CURVE('',#239,#240,#30,.T.);
#303=EDGE_CURVE('',#244,#240,#34,.T.);
#305=EDGE_CURVE('',#243,#244,#38,.T.);
#307=EDGE_CURVE('',#243,#239,#42,.T.);
#311=ADVANCED_FACE('',(#300,#310),#287,.T.);
#317=EDGE_CURVE('',#204,#216,#46,.T.);
#319=EDGE_CURVE('',#216,#211,#112,.T.);
#325=ADVANCED_FACE('',(#324),#316,.T.);
#331=EDGE_CURVE('',#208,#220,#82,.T.);
#333=EDGE_CURVE('',#220,#214,#54,.T.);
#335=EDGE_CURVE('',#214,#216,#116,.T.);
#339=EDGE_CURVE('',#202,#208,#58,.T.);
#343=EDGE_CURVE('',#247,#248,#62,.T.);
#345=EDGE_CURVE('',#251,#247,#66,.T.);
#347=EDGE_CURVE('',#251,#252,#70,.T.);
#349=EDGE_CURVE('',#252,#248,#74,.T.);
#353=ADVANCED_FACE('',(#342,#352),#330,.T.);
#359=EDGE_CURVE('',#219,#220,#78,.T.);
#362=EDGE_CURVE('',#207,#208,#86,.T.);
#367=EDGE_CURVE('',#259,#260,#95,.T.);
#369=EDGE_CURVE('',#260,#259,#100,.T.);
#373=ADVANCED_FACE('',(#366,#372),#358,.T.);
#381=EDGE_CURVE('',#212,#214,#120,.T.);
#386=ADVANCED_FACE('',(#385),#378,.T.);
#398=ADVANCED_FACE('',(#397),#391,.T.);
#410=ADVANCED_FACE('',(#409),#403,.T.);
#417=EDGE_CURVE('',#260,#256,#132,.T.);
#420=EDGE_CURVE('',#259,#255,#128,.T.);
#424=ADVANCED_FACE('',(#423),#415,.F.);
#436=ADVANCED_FACE('',(#435),#429,.F.);
#443=EDGE_CURVE('',#224,#239,#136,.T.);
#445=EDGE_CURVE('',#223,#224,#140,.T.);
#447=EDGE_CURVE('',#240,#223,#144,.T.);
#451=ADVANCED_FACE('',(#450),#441,.T.);
#458=EDGE_CURVE('',#228,#248,#148,.T.);
#460=EDGE_CURVE('',#227,#228,#152,.T.);
#462=EDGE_CURVE('',#247,#227,#156,.T.);
#466=ADVANCED_FACE('',(#465),#456,.T.);
#473=EDGE_CURVE('',#232,#243,#172,.T.);
#475=EDGE_CURVE('',#224,#232,#160,.T.);
#480=ADVANCED_FACE('',(#479),#471,.T.);
#488=EDGE_CURVE('',#227,#235,#196,.T.);
#490=EDGE_CURVE('',#251,#235,#176,.T.);
#494=ADVANCED_FACE('',(#493),#485,.T.);
#501=EDGE_CURVE('',#244,#231,#164,.T.);
#503=EDGE_CURVE('',#231,#232,#168,.T.);
#508=ADVANCED_FACE('',(#507),#499,.F.);
#516=EDGE_CURVE('',#235,#236,#180,.T.);
#518=EDGE_CURVE('',#236,#252,#184,.T.);
#522=ADVANCED_FACE('',(#521),#513,.F.);
#530=EDGE_CURVE('',#223,#231,#192,.T.);
#535=ADVANCED_FACE('',(#534),#527,.T.);
#543=EDGE_CURVE('',#228,#236,#188,.T.);
#548=ADVANCED_FACE('',(#547),#540,.T.);
#560=ADVANCED_FACE('',(#559),#553,.T.);
#572=ADVANCED_FACE('',(#571),#565,.T.);
#575=(LENGTH_UNIT()NAMED_UNIT(*)SI_UNIT(.MILLI.,.METRE.));
#577=(NAMED_UNIT(*)PLANE_ANGLE_UNIT()SI_UNIT($,.RADIAN.));
#580=(NAMED_UNIT(*)SI_UNIT($,.STERADIAN.)SOLID_ANGLE_UNIT());
#582=(GEOMETRIC_REPRESENTATION_CONTEXT(3)GLOBAL_UNCERTAINTY_ASSIGNED_CONTEXT((
#581))GLOBAL_UNIT_ASSIGNED_CONTEXT((#575,#579,#580))REPRESENTATION_CONTEXT
('ID1','3'));
#583=ADVANCED_BREP_SHAPE_REPRESENTATION('',(#574),#582);
#590=PRODUCT_DEFINITION('design','',#589,#586);
#591=PRODUCT_DEFINITION_SHAPE('','SHAPE FOR CHF3020CBF.',#590);
#592=SHAPE_DEFINITION_REPRESENTATION(#591,#583);
ENDSEC;
END-ISO-10303-21;
