ISO-10303-21;
HEADER;
FILE_DESCRIPTION((''),'2;1');
FILE_NAME('PWR220T-20','2012-08-17T',('ryans'),('Bourns, Inc.'),
'PRO/ENGINEER BY PARAMETRIC TECHNOLOGY CORPORATION, 2010100',
'PRO/ENGINEER BY PARAMETRIC TECHNOLOGY CORPORATION, 2010100','');
FILE_SCHEMA(('CONFIG_CONTROL_DESIGN'));
ENDSEC;
DATA;
#1=DIRECTION('',(-1.E0,0.E0,0.E0));
#2=VECTOR('',#1,1.01E1);
#3=CARTESIAN_POINT('',(5.05E0,0.E0,-1.0315E1));
#4=LINE('',#3,#2);
#5=DIRECTION('',(1.E0,0.E0,0.E0));
#6=VECTOR('',#5,1.01E1);
#7=CARTESIAN_POINT('',(-5.05E0,0.E0,4.315E0));
#8=LINE('',#7,#6);
#9=CARTESIAN_POINT('',(0.E0,0.E0,-7.815E0));
#10=DIRECTION('',(0.E0,1.E0,0.E0));
#11=DIRECTION('',(1.E0,0.E0,0.E0));
#12=AXIS2_PLACEMENT_3D('',#9,#10,#11);
#14=CARTESIAN_POINT('',(0.E0,0.E0,-7.815E0));
#15=DIRECTION('',(0.E0,1.E0,0.E0));
#16=DIRECTION('',(-1.E0,0.E0,0.E0));
#17=AXIS2_PLACEMENT_3D('',#14,#15,#16);
#19=DIRECTION('',(0.E0,0.E0,1.E0));
#20=VECTOR('',#19,1.463E1);
#21=CARTESIAN_POINT('',(5.05E0,0.E0,-1.0315E1));
#22=LINE('',#21,#20);
#23=DIRECTION('',(0.E0,1.E0,0.E0));
#24=VECTOR('',#23,4.E0);
#25=CARTESIAN_POINT('',(5.05E0,0.E0,4.315E0));
#26=LINE('',#25,#24);
#27=DIRECTION('',(-1.E0,0.E0,0.E0));
#28=VECTOR('',#27,1.01E1);
#29=CARTESIAN_POINT('',(5.05E0,1.23E0,-4.315E0));
#30=LINE('',#29,#28);
#31=DIRECTION('',(0.E0,1.E0,0.E0));
#32=VECTOR('',#31,2.77E0);
#33=CARTESIAN_POINT('',(5.05E0,1.23E0,-4.315E0));
#34=LINE('',#33,#32);
#35=DIRECTION('',(0.E0,0.E0,1.E0));
#36=VECTOR('',#35,6.E0);
#37=CARTESIAN_POINT('',(-5.05E0,1.23E0,-1.0315E1));
#38=LINE('',#37,#36);
#39=DIRECTION('',(-1.E0,0.E0,0.E0));
#40=VECTOR('',#39,1.01E1);
#41=CARTESIAN_POINT('',(5.05E0,1.23E0,-1.0315E1));
#42=LINE('',#41,#40);
#43=DIRECTION('',(0.E0,0.E0,-1.E0));
#44=VECTOR('',#43,6.E0);
#45=CARTESIAN_POINT('',(5.05E0,1.23E0,-4.315E0));
#46=LINE('',#45,#44);
#47=CARTESIAN_POINT('',(0.E0,1.23E0,-7.815E0));
#48=DIRECTION('',(0.E0,1.E0,0.E0));
#49=DIRECTION('',(1.E0,0.E0,0.E0));
#50=AXIS2_PLACEMENT_3D('',#47,#48,#49);
#52=CARTESIAN_POINT('',(0.E0,1.23E0,-7.815E0));
#53=DIRECTION('',(0.E0,1.E0,0.E0));
#54=DIRECTION('',(-1.E0,0.E0,0.E0));
#55=AXIS2_PLACEMENT_3D('',#52,#53,#54);
#57=DIRECTION('',(0.E0,0.E0,-1.E0));
#58=VECTOR('',#57,1.463E1);
#59=CARTESIAN_POINT('',(-5.05E0,0.E0,4.315E0));
#60=LINE('',#59,#58);
#61=DIRECTION('',(0.E0,1.E0,0.E0));
#62=VECTOR('',#61,1.23E0);
#63=CARTESIAN_POINT('',(-5.05E0,0.E0,-1.0315E1));
#64=LINE('',#63,#62);
#65=DIRECTION('',(0.E0,1.E0,0.E0));
#66=VECTOR('',#65,2.77E0);
#67=CARTESIAN_POINT('',(-5.05E0,1.23E0,-4.315E0));
#68=LINE('',#67,#66);
#69=DIRECTION('',(0.E0,1.E0,0.E0));
#70=VECTOR('',#69,1.23E0);
#71=CARTESIAN_POINT('',(5.05E0,0.E0,-1.0315E1));
#72=LINE('',#71,#70);
#73=DIRECTION('',(0.E0,0.E0,1.E0));
#74=VECTOR('',#73,8.63E0);
#75=CARTESIAN_POINT('',(-5.05E0,4.E0,-4.315E0));
#76=LINE('',#75,#74);
#77=DIRECTION('',(-1.E0,0.E0,0.E0));
#78=VECTOR('',#77,1.01E1);
#79=CARTESIAN_POINT('',(5.05E0,4.E0,-4.315E0));
#80=LINE('',#79,#78);
#81=DIRECTION('',(0.E0,0.E0,-1.E0));
#82=VECTOR('',#81,8.63E0);
#83=CARTESIAN_POINT('',(5.05E0,4.E0,4.315E0));
#84=LINE('',#83,#82);
#85=DIRECTION('',(1.E0,0.E0,0.E0));
#86=VECTOR('',#85,1.01E1);
#87=CARTESIAN_POINT('',(-5.05E0,4.E0,4.315E0));
#88=LINE('',#87,#86);
#89=DIRECTION('',(0.E0,1.E0,0.E0));
#90=VECTOR('',#89,4.E0);
#91=CARTESIAN_POINT('',(-5.05E0,0.E0,4.315E0));
#92=LINE('',#91,#90);
#93=DIRECTION('',(1.E0,0.E0,0.E0));
#94=VECTOR('',#93,7.2E-1);
#95=CARTESIAN_POINT('',(1.89E0,2.05E0,4.315E0));
#96=LINE('',#95,#94);
#97=DIRECTION('',(0.E0,-1.E0,0.E0));
#98=VECTOR('',#97,4.E-1);
#99=CARTESIAN_POINT('',(2.61E0,2.45E0,4.315E0));
#100=LINE('',#99,#98);
#101=DIRECTION('',(1.E0,0.E0,0.E0));
#102=VECTOR('',#101,7.2E-1);
#103=CARTESIAN_POINT('',(1.89E0,2.45E0,4.315E0));
#104=LINE('',#103,#102);
#105=DIRECTION('',(0.E0,-1.E0,0.E0));
#106=VECTOR('',#105,4.E-1);
#107=CARTESIAN_POINT('',(1.89E0,2.45E0,4.315E0));
#108=LINE('',#107,#106);
#109=DIRECTION('',(1.E0,0.E0,0.E0));
#110=VECTOR('',#109,7.2E-1);
#111=CARTESIAN_POINT('',(-2.61E0,2.05E0,4.315E0));
#112=LINE('',#111,#110);
#113=DIRECTION('',(0.E0,-1.E0,0.E0));
#114=VECTOR('',#113,4.E-1);
#115=CARTESIAN_POINT('',(-1.89E0,2.45E0,4.315E0));
#116=LINE('',#115,#114);
#117=DIRECTION('',(1.E0,0.E0,0.E0));
#118=VECTOR('',#117,7.2E-1);
#119=CARTESIAN_POINT('',(-2.61E0,2.45E0,4.315E0));
#120=LINE('',#119,#118);
#121=DIRECTION('',(0.E0,-1.E0,0.E0));
#122=VECTOR('',#121,4.E-1);
#123=CARTESIAN_POINT('',(-2.61E0,2.45E0,4.315E0));
#124=LINE('',#123,#122);
#125=DIRECTION('',(0.E0,0.E0,-1.E0));
#126=VECTOR('',#125,1.367E1);
#127=CARTESIAN_POINT('',(1.89E0,2.05E0,1.7985E1));
#128=LINE('',#127,#126);
#129=DIRECTION('',(-1.E0,0.E0,0.E0));
#130=VECTOR('',#129,7.2E-1);
#131=CARTESIAN_POINT('',(2.61E0,2.05E0,1.7985E1));
#132=LINE('',#131,#130);
#133=DIRECTION('',(0.E0,0.E0,1.E0));
#134=VECTOR('',#133,1.367E1);
#135=CARTESIAN_POINT('',(2.61E0,2.05E0,4.315E0));
#136=LINE('',#135,#134);
#137=DIRECTION('',(0.E0,0.E0,-1.E0));
#138=VECTOR('',#137,1.367E1);
#139=CARTESIAN_POINT('',(-2.61E0,2.05E0,1.7985E1));
#140=LINE('',#139,#138);
#141=DIRECTION('',(-1.E0,0.E0,0.E0));
#142=VECTOR('',#141,7.2E-1);
#143=CARTESIAN_POINT('',(-1.89E0,2.05E0,1.7985E1));
#144=LINE('',#143,#142);
#145=DIRECTION('',(0.E0,0.E0,1.E0));
#146=VECTOR('',#145,1.367E1);
#147=CARTESIAN_POINT('',(-1.89E0,2.05E0,4.315E0));
#148=LINE('',#147,#146);
#149=DIRECTION('',(0.E0,1.E0,0.E0));
#150=VECTOR('',#149,4.E-1);
#151=CARTESIAN_POINT('',(1.89E0,2.05E0,1.7985E1));
#152=LINE('',#151,#150);
#153=DIRECTION('',(0.E0,0.E0,1.E0));
#154=VECTOR('',#153,1.367E1);
#155=CARTESIAN_POINT('',(2.61E0,2.45E0,4.315E0));
#156=LINE('',#155,#154);
#157=DIRECTION('',(-1.E0,0.E0,0.E0));
#158=VECTOR('',#157,7.2E-1);
#159=CARTESIAN_POINT('',(2.61E0,2.45E0,1.7985E1));
#160=LINE('',#159,#158);
#161=DIRECTION('',(0.E0,0.E0,-1.E0));
#162=VECTOR('',#161,1.367E1);
#163=CARTESIAN_POINT('',(1.89E0,2.45E0,1.7985E1));
#164=LINE('',#163,#162);
#165=DIRECTION('',(0.E0,0.E0,1.E0));
#166=VECTOR('',#165,1.367E1);
#167=CARTESIAN_POINT('',(-1.89E0,2.45E0,4.315E0));
#168=LINE('',#167,#166);
#169=DIRECTION('',(-1.E0,0.E0,0.E0));
#170=VECTOR('',#169,7.2E-1);
#171=CARTESIAN_POINT('',(-1.89E0,2.45E0,1.7985E1));
#172=LINE('',#171,#170);
#173=DIRECTION('',(0.E0,0.E0,-1.E0));
#174=VECTOR('',#173,1.367E1);
#175=CARTESIAN_POINT('',(-2.61E0,2.45E0,1.7985E1));
#176=LINE('',#175,#174);
#177=DIRECTION('',(0.E0,1.E0,0.E0));
#178=VECTOR('',#177,4.E-1);
#179=CARTESIAN_POINT('',(2.61E0,2.05E0,1.7985E1));
#180=LINE('',#179,#178);
#181=DIRECTION('',(0.E0,1.E0,0.E0));
#182=VECTOR('',#181,4.E-1);
#183=CARTESIAN_POINT('',(-1.89E0,2.05E0,1.7985E1));
#184=LINE('',#183,#182);
#185=DIRECTION('',(0.E0,1.E0,0.E0));
#186=VECTOR('',#185,4.E-1);
#187=CARTESIAN_POINT('',(-2.61E0,2.05E0,1.7985E1));
#188=LINE('',#187,#186);
#189=DIRECTION('',(0.E0,-1.E0,0.E0));
#190=VECTOR('',#189,1.23E0);
#191=CARTESIAN_POINT('',(1.8E0,1.23E0,-7.815E0));
#192=LINE('',#191,#190);
#193=DIRECTION('',(0.E0,-1.E0,0.E0));
#194=VECTOR('',#193,1.23E0);
#195=CARTESIAN_POINT('',(-1.8E0,1.23E0,-7.815E0));
#196=LINE('',#195,#194);
#197=CARTESIAN_POINT('',(-5.05E0,0.E0,4.315E0));
#198=CARTESIAN_POINT('',(5.05E0,0.E0,4.315E0));
#199=VERTEX_POINT('',#197);
#200=VERTEX_POINT('',#198);
#201=CARTESIAN_POINT('',(-5.05E0,4.E0,-4.315E0));
#202=CARTESIAN_POINT('',(-5.05E0,4.E0,4.315E0));
#203=VERTEX_POINT('',#201);
#204=VERTEX_POINT('',#202);
#205=CARTESIAN_POINT('',(5.05E0,4.E0,4.315E0));
#206=VERTEX_POINT('',#205);
#207=CARTESIAN_POINT('',(5.05E0,4.E0,-4.315E0));
#208=VERTEX_POINT('',#207);
#209=CARTESIAN_POINT('',(5.05E0,0.E0,-1.0315E1));
#210=CARTESIAN_POINT('',(-5.05E0,0.E0,-1.0315E1));
#211=VERTEX_POINT('',#209);
#212=VERTEX_POINT('',#210);
#213=CARTESIAN_POINT('',(5.05E0,1.23E0,-1.0315E1));
#214=CARTESIAN_POINT('',(-5.05E0,1.23E0,-1.0315E1));
#215=VERTEX_POINT('',#213);
#216=VERTEX_POINT('',#214);
#217=CARTESIAN_POINT('',(5.05E0,1.23E0,-4.315E0));
#218=CARTESIAN_POINT('',(-5.05E0,1.23E0,-4.315E0));
#219=VERTEX_POINT('',#217);
#220=VERTEX_POINT('',#218);
#221=CARTESIAN_POINT('',(1.8E0,0.E0,-7.815E0));
#222=CARTESIAN_POINT('',(-1.8E0,0.E0,-7.815E0));
#223=VERTEX_POINT('',#221);
#224=VERTEX_POINT('',#222);
#225=CARTESIAN_POINT('',(1.8E0,1.23E0,-7.815E0));
#226=CARTESIAN_POINT('',(-1.8E0,1.23E0,-7.815E0));
#227=VERTEX_POINT('',#225);
#228=VERTEX_POINT('',#226);
#229=CARTESIAN_POINT('',(1.89E0,2.05E0,4.315E0));
#230=CARTESIAN_POINT('',(2.61E0,2.05E0,4.315E0));
#231=VERTEX_POINT('',#229);
#232=VERTEX_POINT('',#230);
#233=CARTESIAN_POINT('',(-2.61E0,2.05E0,4.315E0));
#234=CARTESIAN_POINT('',(-1.89E0,2.05E0,4.315E0));
#235=VERTEX_POINT('',#233);
#236=VERTEX_POINT('',#234);
#237=CARTESIAN_POINT('',(1.89E0,2.45E0,4.315E0));
#238=CARTESIAN_POINT('',(2.61E0,2.45E0,4.315E0));
#239=VERTEX_POINT('',#237);
#240=VERTEX_POINT('',#238);
#241=CARTESIAN_POINT('',(-2.61E0,2.45E0,4.315E0));
#242=CARTESIAN_POINT('',(-1.89E0,2.45E0,4.315E0));
#243=VERTEX_POINT('',#241);
#244=VERTEX_POINT('',#242);
#245=CARTESIAN_POINT('',(-1.89E0,2.05E0,1.7985E1));
#246=CARTESIAN_POINT('',(-2.61E0,2.05E0,1.7985E1));
#247=VERTEX_POINT('',#245);
#248=VERTEX_POINT('',#246);
#249=CARTESIAN_POINT('',(2.61E0,2.05E0,1.7985E1));
#250=CARTESIAN_POINT('',(1.89E0,2.05E0,1.7985E1));
#251=VERTEX_POINT('',#249);
#252=VERTEX_POINT('',#250);
#253=CARTESIAN_POINT('',(-1.89E0,2.45E0,1.7985E1));
#254=CARTESIAN_POINT('',(-2.61E0,2.45E0,1.7985E1));
#255=VERTEX_POINT('',#253);
#256=VERTEX_POINT('',#254);
#257=CARTESIAN_POINT('',(2.61E0,2.45E0,1.7985E1));
#258=CARTESIAN_POINT('',(1.89E0,2.45E0,1.7985E1));
#259=VERTEX_POINT('',#257);
#260=VERTEX_POINT('',#258);
#261=CARTESIAN_POINT('',(0.E0,0.E0,0.E0));
#262=DIRECTION('',(0.E0,1.E0,0.E0));
#263=DIRECTION('',(1.E0,0.E0,0.E0));
#264=AXIS2_PLACEMENT_3D('',#261,#262,#263);
#265=PLANE('',#264);
#267=ORIENTED_EDGE('',*,*,#266,.F.);
#269=ORIENTED_EDGE('',*,*,#268,.T.);
#271=ORIENTED_EDGE('',*,*,#270,.F.);
#273=ORIENTED_EDGE('',*,*,#272,.T.);
#274=EDGE_LOOP('',(#267,#269,#271,#273));
#275=FACE_OUTER_BOUND('',#274,.F.);
#277=ORIENTED_EDGE('',*,*,#276,.F.);
#279=ORIENTED_EDGE('',*,*,#278,.F.);
#280=EDGE_LOOP('',(#277,#279));
#281=FACE_BOUND('',#280,.F.);
#283=CARTESIAN_POINT('',(5.05E0,0.E0,4.315E0));
#284=DIRECTION('',(1.E0,0.E0,0.E0));
#285=DIRECTION('',(0.E0,0.E0,-1.E0));
#286=AXIS2_PLACEMENT_3D('',#283,#284,#285);
#287=PLANE('',#286);
#289=ORIENTED_EDGE('',*,*,#288,.F.);
#291=ORIENTED_EDGE('',*,*,#290,.T.);
#293=ORIENTED_EDGE('',*,*,#292,.F.);
#294=ORIENTED_EDGE('',*,*,#266,.T.);
#296=ORIENTED_EDGE('',*,*,#295,.T.);
#298=ORIENTED_EDGE('',*,*,#297,.T.);
#299=EDGE_LOOP('',(#289,#291,#293,#294,#296,#298));
#300=FACE_OUTER_BOUND('',#299,.F.);
#302=CARTESIAN_POINT('',(5.05E0,0.E0,-4.315E0));
#303=DIRECTION('',(0.E0,0.E0,-1.E0));
#304=DIRECTION('',(-1.E0,0.E0,0.E0));
#305=AXIS2_PLACEMENT_3D('',#302,#303,#304);
#306=PLANE('',#305);
#308=ORIENTED_EDGE('',*,*,#307,.F.);
#309=ORIENTED_EDGE('',*,*,#288,.T.);
#311=ORIENTED_EDGE('',*,*,#310,.T.);
#313=ORIENTED_EDGE('',*,*,#312,.F.);
#314=EDGE_LOOP('',(#308,#309,#311,#313));
#315=FACE_OUTER_BOUND('',#314,.F.);
#317=CARTESIAN_POINT('',(0.E0,1.23E0,0.E0));
#318=DIRECTION('',(0.E0,1.E0,0.E0));
#319=DIRECTION('',(1.E0,0.E0,0.E0));
#320=AXIS2_PLACEMENT_3D('',#317,#318,#319);
#321=PLANE('',#320);
#322=ORIENTED_EDGE('',*,*,#307,.T.);
#324=ORIENTED_EDGE('',*,*,#323,.F.);
#326=ORIENTED_EDGE('',*,*,#325,.F.);
#327=ORIENTED_EDGE('',*,*,#290,.F.);
#328=EDGE_LOOP('',(#322,#324,#326,#327));
#329=FACE_OUTER_BOUND('',#328,.F.);
#331=ORIENTED_EDGE('',*,*,#330,.T.);
#333=ORIENTED_EDGE('',*,*,#332,.T.);
#334=EDGE_LOOP('',(#331,#333));
#335=FACE_BOUND('',#334,.F.);
#337=CARTESIAN_POINT('',(-5.05E0,0.E0,-4.315E0));
#338=DIRECTION('',(-1.E0,0.E0,0.E0));
#339=DIRECTION('',(0.E0,0.E0,1.E0));
#340=AXIS2_PLACEMENT_3D('',#337,#338,#339);
#341=PLANE('',#340);
#342=ORIENTED_EDGE('',*,*,#270,.T.);
#344=ORIENTED_EDGE('',*,*,#343,.T.);
#345=ORIENTED_EDGE('',*,*,#323,.T.);
#346=ORIENTED_EDGE('',*,*,#312,.T.);
#348=ORIENTED_EDGE('',*,*,#347,.T.);
#350=ORIENTED_EDGE('',*,*,#349,.F.);
#351=EDGE_LOOP('',(#342,#344,#345,#346,#348,#350));
#352=FACE_OUTER_BOUND('',#351,.F.);
#354=CARTESIAN_POINT('',(5.05E0,0.E0,-1.0315E1));
#355=DIRECTION('',(0.E0,0.E0,-1.E0));
#356=DIRECTION('',(-1.E0,0.E0,0.E0));
#357=AXIS2_PLACEMENT_3D('',#354,#355,#356);
#358=PLANE('',#357);
#359=ORIENTED_EDGE('',*,*,#268,.F.);
#360=ORIENTED_EDGE('',*,*,#292,.T.);
#361=ORIENTED_EDGE('',*,*,#325,.T.);
#362=ORIENTED_EDGE('',*,*,#343,.F.);
#363=EDGE_LOOP('',(#359,#360,#361,#362));
#364=FACE_OUTER_BOUND('',#363,.F.);
#366=CARTESIAN_POINT('',(0.E0,4.E0,0.E0));
#367=DIRECTION('',(0.E0,1.E0,0.E0));
#368=DIRECTION('',(1.E0,0.E0,0.E0));
#369=AXIS2_PLACEMENT_3D('',#366,#367,#368);
#370=PLANE('',#369);
#371=ORIENTED_EDGE('',*,*,#347,.F.);
#372=ORIENTED_EDGE('',*,*,#310,.F.);
#373=ORIENTED_EDGE('',*,*,#297,.F.);
#375=ORIENTED_EDGE('',*,*,#374,.F.);
#376=EDGE_LOOP('',(#371,#372,#373,#375));
#377=FACE_OUTER_BOUND('',#376,.F.);
#379=CARTESIAN_POINT('',(-5.05E0,0.E0,4.315E0));
#380=DIRECTION('',(0.E0,0.E0,1.E0));
#381=DIRECTION('',(1.E0,0.E0,0.E0));
#382=AXIS2_PLACEMENT_3D('',#379,#380,#381);
#383=PLANE('',#382);
#384=ORIENTED_EDGE('',*,*,#272,.F.);
#385=ORIENTED_EDGE('',*,*,#349,.T.);
#386=ORIENTED_EDGE('',*,*,#374,.T.);
#387=ORIENTED_EDGE('',*,*,#295,.F.);
#388=EDGE_LOOP('',(#384,#385,#386,#387));
#389=FACE_OUTER_BOUND('',#388,.F.);
#391=ORIENTED_EDGE('',*,*,#390,.T.);
#393=ORIENTED_EDGE('',*,*,#392,.F.);
#395=ORIENTED_EDGE('',*,*,#394,.F.);
#397=ORIENTED_EDGE('',*,*,#396,.T.);
#398=EDGE_LOOP('',(#391,#393,#395,#397));
#399=FACE_BOUND('',#398,.F.);
#401=ORIENTED_EDGE('',*,*,#400,.T.);
#403=ORIENTED_EDGE('',*,*,#402,.F.);
#405=ORIENTED_EDGE('',*,*,#404,.F.);
#407=ORIENTED_EDGE('',*,*,#406,.T.);
#408=EDGE_LOOP('',(#401,#403,#405,#407));
#409=FACE_BOUND('',#408,.F.);
#411=CARTESIAN_POINT('',(0.E0,2.05E0,0.E0));
#412=DIRECTION('',(0.E0,-1.E0,0.E0));
#413=DIRECTION('',(0.E0,0.E0,1.E0));
#414=AXIS2_PLACEMENT_3D('',#411,#412,#413);
#415=PLANE('',#414);
#416=ORIENTED_EDGE('',*,*,#390,.F.);
#418=ORIENTED_EDGE('',*,*,#417,.F.);
#420=ORIENTED_EDGE('',*,*,#419,.F.);
#422=ORIENTED_EDGE('',*,*,#421,.F.);
#423=EDGE_LOOP('',(#416,#418,#420,#422));
#424=FACE_OUTER_BOUND('',#423,.F.);
#426=CARTESIAN_POINT('',(0.E0,2.05E0,0.E0));
#427=DIRECTION('',(0.E0,-1.E0,0.E0));
#428=DIRECTION('',(0.E0,0.E0,1.E0));
#429=AXIS2_PLACEMENT_3D('',#426,#427,#428);
#430=PLANE('',#429);
#431=ORIENTED_EDGE('',*,*,#400,.F.);
#433=ORIENTED_EDGE('',*,*,#432,.F.);
#435=ORIENTED_EDGE('',*,*,#434,.F.);
#437=ORIENTED_EDGE('',*,*,#436,.F.);
#438=EDGE_LOOP('',(#431,#433,#435,#437));
#439=FACE_OUTER_BOUND('',#438,.F.);
#441=CARTESIAN_POINT('',(1.89E0,2.05E0,1.7985E1));
#442=DIRECTION('',(-1.E0,0.E0,0.E0));
#443=DIRECTION('',(0.E0,0.E0,-1.E0));
#444=AXIS2_PLACEMENT_3D('',#441,#442,#443);
#445=PLANE('',#444);
#446=ORIENTED_EDGE('',*,*,#396,.F.);
#448=ORIENTED_EDGE('',*,*,#447,.F.);
#450=ORIENTED_EDGE('',*,*,#449,.F.);
#451=ORIENTED_EDGE('',*,*,#417,.T.);
#452=EDGE_LOOP('',(#446,#448,#450,#451));
#453=FACE_OUTER_BOUND('',#452,.F.);
#455=CARTESIAN_POINT('',(0.E0,2.45E0,0.E0));
#456=DIRECTION('',(0.E0,-1.E0,0.E0));
#457=DIRECTION('',(0.E0,0.E0,1.E0));
#458=AXIS2_PLACEMENT_3D('',#455,#456,#457);
#459=PLANE('',#458);
#460=ORIENTED_EDGE('',*,*,#394,.T.);
#462=ORIENTED_EDGE('',*,*,#461,.T.);
#464=ORIENTED_EDGE('',*,*,#463,.T.);
#465=ORIENTED_EDGE('',*,*,#447,.T.);
#466=EDGE_LOOP('',(#460,#462,#464,#465));
#467=FACE_OUTER_BOUND('',#466,.F.);
#469=CARTESIAN_POINT('',(0.E0,2.45E0,0.E0));
#470=DIRECTION('',(0.E0,-1.E0,0.E0));
#471=DIRECTION('',(0.E0,0.E0,1.E0));
#472=AXIS2_PLACEMENT_3D('',#469,#470,#471);
#473=PLANE('',#472);
#474=ORIENTED_EDGE('',*,*,#404,.T.);
#476=ORIENTED_EDGE('',*,*,#475,.T.);
#478=ORIENTED_EDGE('',*,*,#477,.T.);
#480=ORIENTED_EDGE('',*,*,#479,.T.);
#481=EDGE_LOOP('',(#474,#476,#478,#480));
#482=FACE_OUTER_BOUND('',#481,.F.);
#484=CARTESIAN_POINT('',(2.61E0,2.05E0,2.009734183005E0));
#485=DIRECTION('',(1.E0,0.E0,0.E0));
#486=DIRECTION('',(0.E0,0.E0,1.E0));
#487=AXIS2_PLACEMENT_3D('',#484,#485,#486);
#488=PLANE('',#487);
#489=ORIENTED_EDGE('',*,*,#392,.T.);
#490=ORIENTED_EDGE('',*,*,#421,.T.);
#492=ORIENTED_EDGE('',*,*,#491,.T.);
#493=ORIENTED_EDGE('',*,*,#461,.F.);
#494=EDGE_LOOP('',(#489,#490,#492,#493));
#495=FACE_OUTER_BOUND('',#494,.F.);
#497=CARTESIAN_POINT('',(2.61E0,2.05E0,1.7985E1));
#498=DIRECTION('',(0.E0,0.E0,1.E0));
#499=DIRECTION('',(-1.E0,0.E0,0.E0));
#500=AXIS2_PLACEMENT_3D('',#497,#498,#499);
#501=PLANE('',#500);
#502=ORIENTED_EDGE('',*,*,#419,.T.);
#503=ORIENTED_EDGE('',*,*,#449,.T.);
#504=ORIENTED_EDGE('',*,*,#463,.F.);
#505=ORIENTED_EDGE('',*,*,#491,.F.);
#506=EDGE_LOOP('',(#502,#503,#504,#505));
#507=FACE_OUTER_BOUND('',#506,.F.);
#509=CARTESIAN_POINT('',(-1.89E0,2.05E0,2.009734183005E0));
#510=DIRECTION('',(1.E0,0.E0,0.E0));
#511=DIRECTION('',(0.E0,0.E0,1.E0));
#512=AXIS2_PLACEMENT_3D('',#509,#510,#511);
#513=PLANE('',#512);
#514=ORIENTED_EDGE('',*,*,#402,.T.);
#515=ORIENTED_EDGE('',*,*,#436,.T.);
#517=ORIENTED_EDGE('',*,*,#516,.T.);
#518=ORIENTED_EDGE('',*,*,#475,.F.);
#519=EDGE_LOOP('',(#514,#515,#517,#518));
#520=FACE_OUTER_BOUND('',#519,.F.);
#522=CARTESIAN_POINT('',(-1.89E0,2.05E0,1.7985E1));
#523=DIRECTION('',(0.E0,0.E0,1.E0));
#524=DIRECTION('',(-1.E0,0.E0,0.E0));
#525=AXIS2_PLACEMENT_3D('',#522,#523,#524);
#526=PLANE('',#525);
#527=ORIENTED_EDGE('',*,*,#434,.T.);
#529=ORIENTED_EDGE('',*,*,#528,.T.);
#530=ORIENTED_EDGE('',*,*,#477,.F.);
#531=ORIENTED_EDGE('',*,*,#516,.F.);
#532=EDGE_LOOP('',(#527,#529,#530,#531));
#533=FACE_OUTER_BOUND('',#532,.F.);
#535=CARTESIAN_POINT('',(-2.61E0,2.05E0,1.7985E1));
#536=DIRECTION('',(-1.E0,0.E0,0.E0));
#537=DIRECTION('',(0.E0,0.E0,-1.E0));
#538=AXIS2_PLACEMENT_3D('',#535,#536,#537);
#539=PLANE('',#538);
#540=ORIENTED_EDGE('',*,*,#406,.F.);
#541=ORIENTED_EDGE('',*,*,#479,.F.);
#542=ORIENTED_EDGE('',*,*,#528,.F.);
#543=ORIENTED_EDGE('',*,*,#432,.T.);
#544=EDGE_LOOP('',(#540,#541,#542,#543));
#545=FACE_OUTER_BOUND('',#544,.F.);
#547=CARTESIAN_POINT('',(0.E0,1.23E0,-7.815E0));
#548=DIRECTION('',(0.E0,1.E0,0.E0));
#549=DIRECTION('',(1.E0,0.E0,0.E0));
#550=AXIS2_PLACEMENT_3D('',#547,#548,#549);
#551=CYLINDRICAL_SURFACE('',#550,1.8E0);
#552=ORIENTED_EDGE('',*,*,#276,.T.);
#554=ORIENTED_EDGE('',*,*,#553,.F.);
#555=ORIENTED_EDGE('',*,*,#330,.F.);
#557=ORIENTED_EDGE('',*,*,#556,.T.);
#558=EDGE_LOOP('',(#552,#554,#555,#557));
#559=FACE_OUTER_BOUND('',#558,.F.);
#561=CARTESIAN_POINT('',(0.E0,1.23E0,-7.815E0));
#562=DIRECTION('',(0.E0,1.E0,0.E0));
#563=DIRECTION('',(1.E0,0.E0,0.E0));
#564=AXIS2_PLACEMENT_3D('',#561,#562,#563);
#565=CYLINDRICAL_SURFACE('',#564,1.8E0);
#566=ORIENTED_EDGE('',*,*,#278,.T.);
#567=ORIENTED_EDGE('',*,*,#556,.F.);
#568=ORIENTED_EDGE('',*,*,#332,.F.);
#569=ORIENTED_EDGE('',*,*,#553,.T.);
#570=EDGE_LOOP('',(#566,#567,#568,#569));
#571=FACE_OUTER_BOUND('',#570,.F.);
#573=CLOSED_SHELL('',(#282,#301,#316,#336,#353,#365,#378,#410,#425,#440,#454,
#468,#483,#496,#508,#521,#534,#546,#560,#572));
#574=MANIFOLD_SOLID_BREP('',#573);
#576=DIMENSIONAL_EXPONENTS(0.E0,0.E0,0.E0,0.E0,0.E0,0.E0,0.E0);
#578=PLANE_ANGLE_MEASURE_WITH_UNIT(PLANE_ANGLE_MEASURE(1.745329251994E-2),#577);
#579=(CONVERSION_BASED_UNIT('DEGREE',#578)NAMED_UNIT(*)PLANE_ANGLE_UNIT());
#581=UNCERTAINTY_MEASURE_WITH_UNIT(LENGTH_MEASURE(1.263006285635E-3),#575,
'closure',
'Maximum model space distance between geometric entities at asserted connectivities');
#584=APPLICATION_CONTEXT(
'CONFIGURATION CONTROLLED 3D DESIGNS OF MECHANICAL PARTS AND ASSEMBLIES');
#585=APPLICATION_PROTOCOL_DEFINITION('international standard',
'config_control_design',1994,#584);
#586=DESIGN_CONTEXT('',#584,'design');
#587=MECHANICAL_CONTEXT('',#584,'mechanical');
#588=PRODUCT('PWR220T-20','PWR220T-20','NOT SPECIFIED',(#587));
#589=PRODUCT_DEFINITION_FORMATION_WITH_SPECIFIED_SOURCE('2','LAST_VERSION',#588,
.MADE.);
#593=PRODUCT_CATEGORY('part','');
#594=PRODUCT_RELATED_PRODUCT_CATEGORY('detail','',(#588));
#595=PRODUCT_CATEGORY_RELATIONSHIP('','',#593,#594);
#596=SECURITY_CLASSIFICATION_LEVEL('unclassified');
#597=SECURITY_CLASSIFICATION('','',#596);
#598=CC_DESIGN_SECURITY_CLASSIFICATION(#597,(#589));
#599=APPROVAL_STATUS('approved');
#600=APPROVAL(#599,'');
#601=CC_DESIGN_APPROVAL(#600,(#597,#589,#590));
#602=CALENDAR_DATE(112,17,8);
#603=COORDINATED_UNIVERSAL_TIME_OFFSET(7,0,.BEHIND.);
#604=LOCAL_TIME(13,31,3.1E1,#603);
#605=DATE_AND_TIME(#602,#604);
#606=APPROVAL_DATE_TIME(#605,#600);
#607=DATE_TIME_ROLE('creation_date');
#608=CC_DESIGN_DATE_AND_TIME_ASSIGNMENT(#605,#607,(#590));
#609=DATE_TIME_ROLE('classification_date');
#610=CC_DESIGN_DATE_AND_TIME_ASSIGNMENT(#605,#609,(#597));
#611=PERSON('UNSPECIFIED','UNSPECIFIED',$,$,$,$);
#612=ORGANIZATION('UNSPECIFIED','UNSPECIFIED','UNSPECIFIED');
#613=PERSON_AND_ORGANIZATION(#611,#612);
#614=APPROVAL_ROLE('approver');
#615=APPROVAL_PERSON_ORGANIZATION(#613,#600,#614);
#616=PERSON_AND_ORGANIZATION_ROLE('creator');
#617=CC_DESIGN_PERSON_AND_ORGANIZATION_ASSIGNMENT(#613,#616,(#589,#590));
#618=PERSON_AND_ORGANIZATION_ROLE('design_supplier');
#619=CC_DESIGN_PERSON_AND_ORGANIZATION_ASSIGNMENT(#613,#618,(#589));
#620=PERSON_AND_ORGANIZATION_ROLE('classification_officer');
#621=CC_DESIGN_PERSON_AND_ORGANIZATION_ASSIGNMENT(#613,#620,(#597));
#622=PERSON_AND_ORGANIZATION_ROLE('design_owner');
#623=CC_DESIGN_PERSON_AND_ORGANIZATION_ASSIGNMENT(#613,#622,(#588));
#13=CIRCLE('',#12,1.8E0);
#18=CIRCLE('',#17,1.8E0);
#51=CIRCLE('',#50,1.8E0);
#56=CIRCLE('',#55,1.8E0);
#266=EDGE_CURVE('',#211,#200,#22,.T.);
#268=EDGE_CURVE('',#211,#212,#4,.T.);
#270=EDGE_CURVE('',#199,#212,#60,.T.);
#272=EDGE_CURVE('',#199,#200,#8,.T.);
#276=EDGE_CURVE('',#223,#224,#13,.T.);
#278=EDGE_CURVE('',#224,#223,#18,.T.);
#282=ADVANCED_FACE('',(#275,#281),#265,.F.);
#288=EDGE_CURVE('',#219,#208,#34,.T.);
#290=EDGE_CURVE('',#219,#215,#46,.T.);
#292=EDGE_CURVE('',#211,#215,#72,.T.);
#295=EDGE_CURVE('',#200,#206,#26,.T.);
#297=EDGE_CURVE('',#206,#208,#84,.T.);
#301=ADVANCED_FACE('',(#300),#287,.T.);
#307=EDGE_CURVE('',#219,#220,#30,.T.);
#310=EDGE_CURVE('',#208,#203,#80,.T.);
#312=EDGE_CURVE('',#220,#203,#68,.T.);
#316=ADVANCED_FACE('',(#315),#306,.T.);
#323=EDGE_CURVE('',#216,#220,#38,.T.);
#325=EDGE_CURVE('',#215,#216,#42,.T.);
#330=EDGE_CURVE('',#227,#228,#51,.T.);
#332=EDGE_CURVE('',#228,#227,#56,.T.);
#336=ADVANCED_FACE('',(#329,#335),#321,.T.);
#343=EDGE_CURVE('',#212,#216,#64,.T.);
#347=EDGE_CURVE('',#203,#204,#76,.T.);
#349=EDGE_CURVE('',#199,#204,#92,.T.);
#353=ADVANCED_FACE('',(#352),#341,.T.);
#365=ADVANCED_FACE('',(#364),#358,.T.);
#374=EDGE_CURVE('',#204,#206,#88,.T.);
#378=ADVANCED_FACE('',(#377),#370,.T.);
#390=EDGE_CURVE('',#231,#232,#96,.T.);
#392=EDGE_CURVE('',#240,#232,#100,.T.);
#394=EDGE_CURVE('',#239,#240,#104,.T.);
#396=EDGE_CURVE('',#239,#231,#108,.T.);
#400=EDGE_CURVE('',#235,#236,#112,.T.);
#402=EDGE_CURVE('',#244,#236,#116,.T.);
#404=EDGE_CURVE('',#243,#244,#120,.T.);
#406=EDGE_CURVE('',#243,#235,#124,.T.);
#410=ADVANCED_FACE('',(#389,#399,#409),#383,.T.);
#417=EDGE_CURVE('',#252,#231,#128,.T.);
#419=EDGE_CURVE('',#251,#252,#132,.T.);
#421=EDGE_CURVE('',#232,#251,#136,.T.);
#425=ADVANCED_FACE('',(#424),#415,.T.);
#432=EDGE_CURVE('',#248,#235,#140,.T.);
#434=EDGE_CURVE('',#247,#248,#144,.T.);
#436=EDGE_CURVE('',#236,#247,#148,.T.);
#440=ADVANCED_FACE('',(#439),#430,.T.);
#447=EDGE_CURVE('',#260,#239,#164,.T.);
#449=EDGE_CURVE('',#252,#260,#152,.T.);
#454=ADVANCED_FACE('',(#453),#445,.T.);
#461=EDGE_CURVE('',#240,#259,#156,.T.);
#463=EDGE_CURVE('',#259,#260,#160,.T.);
#468=ADVANCED_FACE('',(#467),#459,.F.);
#475=EDGE_CURVE('',#244,#255,#168,.T.);
#477=EDGE_CURVE('',#255,#256,#172,.T.);
#479=EDGE_CURVE('',#256,#243,#176,.T.);
#483=ADVANCED_FACE('',(#482),#473,.F.);
#491=EDGE_CURVE('',#251,#259,#180,.T.);
#496=ADVANCED_FACE('',(#495),#488,.T.);
#508=ADVANCED_FACE('',(#507),#501,.T.);
#516=EDGE_CURVE('',#247,#255,#184,.T.);
#521=ADVANCED_FACE('',(#520),#513,.T.);
#528=EDGE_CURVE('',#248,#256,#188,.T.);
#534=ADVANCED_FACE('',(#533),#526,.T.);
#546=ADVANCED_FACE('',(#545),#539,.T.);
#553=EDGE_CURVE('',#228,#224,#196,.T.);
#556=EDGE_CURVE('',#227,#223,#192,.T.);
#560=ADVANCED_FACE('',(#559),#551,.F.);
#572=ADVANCED_FACE('',(#571),#565,.F.);
#575=(LENGTH_UNIT()NAMED_UNIT(*)SI_UNIT(.MILLI.,.METRE.));
#577=(NAMED_UNIT(*)PLANE_ANGLE_UNIT()SI_UNIT($,.RADIAN.));
#580=(NAMED_UNIT(*)SI_UNIT($,.STERADIAN.)SOLID_ANGLE_UNIT());
#582=(GEOMETRIC_REPRESENTATION_CONTEXT(3)GLOBAL_UNCERTAINTY_ASSIGNED_CONTEXT((
#581))GLOBAL_UNIT_ASSIGNED_CONTEXT((#575,#579,#580))REPRESENTATION_CONTEXT
('ID1','3'));
#583=ADVANCED_BREP_SHAPE_REPRESENTATION('',(#574),#582);
#590=PRODUCT_DEFINITION('design','',#589,#586);
#591=PRODUCT_DEFINITION_SHAPE('','SHAPE FOR PWR220T-20.',#590);
#592=SHAPE_DEFINITION_REPRESENTATION(#591,#583);
ENDSEC;
END-ISO-10303-21;
