ISO-10303-21;
HEADER;
FILE_DESCRIPTION((''),'2;1');
FILE_NAME('1669-01','2012-08-24T',('ryans'),('Bourns, Inc.'),
'PRO/ENGINEER BY PARAMETRIC TECHNOLOGY CORPORATION, 2010100',
'PRO/ENGINEER BY PARAMETRIC TECHNOLOGY CORPORATION, 2010100','');
FILE_SCHEMA(('CONFIG_CONTROL_DESIGN'));
ENDSEC;
DATA;
#1=CARTESIAN_POINT('',(0.E0,0.E0,0.E0));
#2=DIRECTION('',(0.E0,0.E0,1.E0));
#3=DIRECTION('',(1.E0,0.E0,0.E0));
#4=AXIS2_PLACEMENT_3D('',#1,#2,#3);
#6=CARTESIAN_POINT('',(0.E0,0.E0,0.E0));
#7=DIRECTION('',(0.E0,0.E0,1.E0));
#8=DIRECTION('',(-1.E0,0.E0,0.E0));
#9=AXIS2_PLACEMENT_3D('',#6,#7,#8);
#11=CARTESIAN_POINT('',(0.E0,-1.688523507732E0,0.E0));
#12=DIRECTION('',(0.E0,0.E0,-1.E0));
#13=DIRECTION('',(0.E0,-1.E0,0.E0));
#14=AXIS2_PLACEMENT_3D('',#11,#12,#13);
#16=CARTESIAN_POINT('',(0.E0,-1.688523507732E0,0.E0));
#17=DIRECTION('',(0.E0,0.E0,-1.E0));
#18=DIRECTION('',(0.E0,1.E0,0.E0));
#19=AXIS2_PLACEMENT_3D('',#16,#17,#18);
#21=CARTESIAN_POINT('',(0.E0,2.662671685270E0,0.E0));
#22=DIRECTION('',(0.E0,0.E0,-1.E0));
#23=DIRECTION('',(0.E0,-1.E0,0.E0));
#24=AXIS2_PLACEMENT_3D('',#21,#22,#23);
#26=CARTESIAN_POINT('',(0.E0,2.662671685270E0,0.E0));
#27=DIRECTION('',(0.E0,0.E0,-1.E0));
#28=DIRECTION('',(0.E0,1.E0,0.E0));
#29=AXIS2_PLACEMENT_3D('',#26,#27,#28);
#31=DIRECTION('',(0.E0,0.E0,1.E0));
#32=VECTOR('',#31,1.E2);
#33=CARTESIAN_POINT('',(6.35E0,0.E0,0.E0));
#34=LINE('',#33,#32);
#35=DIRECTION('',(0.E0,0.E0,1.E0));
#36=VECTOR('',#35,1.E2);
#37=CARTESIAN_POINT('',(-6.35E0,0.E0,0.E0));
#38=LINE('',#37,#36);
#39=CARTESIAN_POINT('',(0.E0,0.E0,1.E2));
#40=DIRECTION('',(0.E0,0.E0,1.E0));
#41=DIRECTION('',(1.E0,0.E0,0.E0));
#42=AXIS2_PLACEMENT_3D('',#39,#40,#41);
#44=CARTESIAN_POINT('',(0.E0,0.E0,1.E2));
#45=DIRECTION('',(0.E0,0.E0,1.E0));
#46=DIRECTION('',(-1.E0,0.E0,0.E0));
#47=AXIS2_PLACEMENT_3D('',#44,#45,#46);
#49=CARTESIAN_POINT('',(0.E0,0.E0,1.E2));
#50=DIRECTION('',(0.E0,0.E0,1.E0));
#51=DIRECTION('',(0.E0,-1.E0,0.E0));
#52=AXIS2_PLACEMENT_3D('',#49,#50,#51);
#54=CARTESIAN_POINT('',(0.E0,0.E0,1.E2));
#55=DIRECTION('',(0.E0,0.E0,1.E0));
#56=DIRECTION('',(0.E0,1.E0,0.E0));
#57=AXIS2_PLACEMENT_3D('',#54,#55,#56);
#59=CARTESIAN_POINT('',(0.E0,-2.997924466286E0,1.E2));
#60=DIRECTION('',(0.E0,0.E0,1.E0));
#61=DIRECTION('',(0.E0,-1.E0,0.E0));
#62=AXIS2_PLACEMENT_3D('',#59,#60,#61);
#64=CARTESIAN_POINT('',(0.E0,-2.997924466286E0,1.E2));
#65=DIRECTION('',(0.E0,0.E0,1.E0));
#66=DIRECTION('',(0.E0,1.E0,0.E0));
#67=AXIS2_PLACEMENT_3D('',#64,#65,#66);
#69=CARTESIAN_POINT('',(0.E0,3.835579831866E0,1.E2));
#70=DIRECTION('',(0.E0,0.E0,1.E0));
#71=DIRECTION('',(0.E0,-1.E0,0.E0));
#72=AXIS2_PLACEMENT_3D('',#69,#70,#71);
#74=CARTESIAN_POINT('',(0.E0,3.835579831866E0,1.E2));
#75=DIRECTION('',(0.E0,0.E0,1.E0));
#76=DIRECTION('',(0.E0,1.E0,0.E0));
#77=AXIS2_PLACEMENT_3D('',#74,#75,#76);
#79=DIRECTION('',(0.E0,0.E0,1.E0));
#80=VECTOR('',#79,3.167E1);
#81=CARTESIAN_POINT('',(0.E0,-5.475507272230E-1,1.E2));
#82=LINE('',#81,#80);
#83=DIRECTION('',(0.E0,0.E0,1.E0));
#84=VECTOR('',#83,3.167E1);
#85=CARTESIAN_POINT('',(0.E0,5.475507272230E-1,1.E2));
#86=LINE('',#85,#84);
#87=CARTESIAN_POINT('',(0.E0,0.E0,1.3167E2));
#88=DIRECTION('',(0.E0,0.E0,1.E0));
#89=DIRECTION('',(0.E0,-1.E0,0.E0));
#90=AXIS2_PLACEMENT_3D('',#87,#88,#89);
#92=CARTESIAN_POINT('',(0.E0,0.E0,1.3167E2));
#93=DIRECTION('',(0.E0,0.E0,1.E0));
#94=DIRECTION('',(0.E0,1.E0,0.E0));
#95=AXIS2_PLACEMENT_3D('',#92,#93,#94);
#97=CARTESIAN_POINT('',(0.E0,-2.997924466286E0,1.3167E2));
#98=DIRECTION('',(0.E0,0.E0,1.E0));
#99=DIRECTION('',(0.E0,-1.E0,0.E0));
#100=AXIS2_PLACEMENT_3D('',#97,#98,#99);
#102=CARTESIAN_POINT('',(0.E0,-2.997924466286E0,1.3167E2));
#103=DIRECTION('',(0.E0,0.E0,1.E0));
#104=DIRECTION('',(0.E0,1.E0,0.E0));
#105=AXIS2_PLACEMENT_3D('',#102,#103,#104);
#107=CARTESIAN_POINT('',(0.E0,3.835579831866E0,1.3167E2));
#108=DIRECTION('',(0.E0,0.E0,1.E0));
#109=DIRECTION('',(0.E0,-1.E0,0.E0));
#110=AXIS2_PLACEMENT_3D('',#107,#108,#109);
#112=CARTESIAN_POINT('',(0.E0,3.835579831866E0,1.3167E2));
#113=DIRECTION('',(0.E0,0.E0,1.E0));
#114=DIRECTION('',(0.E0,1.E0,0.E0));
#115=AXIS2_PLACEMENT_3D('',#112,#113,#114);
#117=DIRECTION('',(0.E0,0.E0,1.E0));
#118=VECTOR('',#117,3.167E1);
#119=CARTESIAN_POINT('',(0.E0,-3.545475193509E0,1.E2));
#120=LINE('',#119,#118);
#121=DIRECTION('',(0.E0,0.E0,1.E0));
#122=VECTOR('',#121,3.167E1);
#123=CARTESIAN_POINT('',(0.E0,-2.450373739063E0,1.E2));
#124=LINE('',#123,#122);
#125=DIRECTION('',(0.E0,0.E0,1.E0));
#126=VECTOR('',#125,3.167E1);
#127=CARTESIAN_POINT('',(0.E0,3.288029104643E0,1.E2));
#128=LINE('',#127,#126);
#129=DIRECTION('',(0.E0,0.E0,1.E0));
#130=VECTOR('',#129,3.167E1);
#131=CARTESIAN_POINT('',(0.E0,4.383130559089E0,1.E2));
#132=LINE('',#131,#130);
#133=DIRECTION('',(0.E0,0.E0,-1.E0));
#134=VECTOR('',#133,2.54E1);
#135=CARTESIAN_POINT('',(0.E0,-2.229716939698E0,0.E0));
#136=LINE('',#135,#134);
#137=DIRECTION('',(0.E0,0.E0,-1.E0));
#138=VECTOR('',#137,2.54E1);
#139=CARTESIAN_POINT('',(0.E0,-1.147330075767E0,0.E0));
#140=LINE('',#139,#138);
#141=CARTESIAN_POINT('',(0.E0,-1.688523507732E0,-2.54E1));
#142=DIRECTION('',(0.E0,0.E0,-1.E0));
#143=DIRECTION('',(0.E0,-1.E0,0.E0));
#144=AXIS2_PLACEMENT_3D('',#141,#142,#143);
#146=CARTESIAN_POINT('',(0.E0,-1.688523507732E0,-2.54E1));
#147=DIRECTION('',(0.E0,0.E0,-1.E0));
#148=DIRECTION('',(0.E0,1.E0,0.E0));
#149=AXIS2_PLACEMENT_3D('',#146,#147,#148);
#151=CARTESIAN_POINT('',(0.E0,2.662671685270E0,-2.54E1));
#152=DIRECTION('',(0.E0,0.E0,-1.E0));
#153=DIRECTION('',(0.E0,-1.E0,0.E0));
#154=AXIS2_PLACEMENT_3D('',#151,#152,#153);
#156=CARTESIAN_POINT('',(0.E0,2.662671685270E0,-2.54E1));
#157=DIRECTION('',(0.E0,0.E0,-1.E0));
#158=DIRECTION('',(0.E0,1.E0,0.E0));
#159=AXIS2_PLACEMENT_3D('',#156,#157,#158);
#161=DIRECTION('',(0.E0,0.E0,-1.E0));
#162=VECTOR('',#161,2.54E1);
#163=CARTESIAN_POINT('',(0.E0,2.121478253305E0,0.E0));
#164=LINE('',#163,#162);
#165=DIRECTION('',(0.E0,0.E0,-1.E0));
#166=VECTOR('',#165,2.54E1);
#167=CARTESIAN_POINT('',(0.E0,3.203865117236E0,0.E0));
#168=LINE('',#167,#166);
#169=CARTESIAN_POINT('',(6.35E0,0.E0,0.E0));
#170=CARTESIAN_POINT('',(-6.35E0,0.E0,0.E0));
#171=VERTEX_POINT('',#169);
#172=VERTEX_POINT('',#170);
#173=CARTESIAN_POINT('',(6.35E0,0.E0,1.E2));
#174=CARTESIAN_POINT('',(-6.35E0,0.E0,1.E2));
#175=VERTEX_POINT('',#173);
#176=VERTEX_POINT('',#174);
#177=CARTESIAN_POINT('',(0.E0,-2.229716939698E0,-2.54E1));
#178=CARTESIAN_POINT('',(0.E0,-1.147330075767E0,-2.54E1));
#179=VERTEX_POINT('',#177);
#180=VERTEX_POINT('',#178);
#181=CARTESIAN_POINT('',(0.E0,2.121478253305E0,-2.54E1));
#182=CARTESIAN_POINT('',(0.E0,3.203865117236E0,-2.54E1));
#183=VERTEX_POINT('',#181);
#184=VERTEX_POINT('',#182);
#185=CARTESIAN_POINT('',(0.E0,-2.229716939698E0,0.E0));
#186=CARTESIAN_POINT('',(0.E0,-1.147330075767E0,0.E0));
#187=VERTEX_POINT('',#185);
#188=VERTEX_POINT('',#186);
#189=CARTESIAN_POINT('',(0.E0,2.121478253305E0,0.E0));
#190=CARTESIAN_POINT('',(0.E0,3.203865117236E0,0.E0));
#191=VERTEX_POINT('',#189);
#192=VERTEX_POINT('',#190);
#193=CARTESIAN_POINT('',(0.E0,-5.475507272230E-1,1.3167E2));
#194=CARTESIAN_POINT('',(0.E0,5.475507272230E-1,1.3167E2));
#195=VERTEX_POINT('',#193);
#196=VERTEX_POINT('',#194);
#197=CARTESIAN_POINT('',(0.E0,-3.545475193509E0,1.3167E2));
#198=CARTESIAN_POINT('',(0.E0,-2.450373739063E0,1.3167E2));
#199=VERTEX_POINT('',#197);
#200=VERTEX_POINT('',#198);
#201=CARTESIAN_POINT('',(0.E0,3.288029104643E0,1.3167E2));
#202=CARTESIAN_POINT('',(0.E0,4.383130559089E0,1.3167E2));
#203=VERTEX_POINT('',#201);
#204=VERTEX_POINT('',#202);
#205=CARTESIAN_POINT('',(0.E0,-5.475507272230E-1,1.E2));
#206=CARTESIAN_POINT('',(0.E0,5.475507272230E-1,1.E2));
#207=VERTEX_POINT('',#205);
#208=VERTEX_POINT('',#206);
#209=CARTESIAN_POINT('',(0.E0,-3.545475193509E0,1.E2));
#210=CARTESIAN_POINT('',(0.E0,-2.450373739063E0,1.E2));
#211=VERTEX_POINT('',#209);
#212=VERTEX_POINT('',#210);
#213=CARTESIAN_POINT('',(0.E0,3.288029104643E0,1.E2));
#214=CARTESIAN_POINT('',(0.E0,4.383130559089E0,1.E2));
#215=VERTEX_POINT('',#213);
#216=VERTEX_POINT('',#214);
#217=CARTESIAN_POINT('',(0.E0,0.E0,0.E0));
#218=DIRECTION('',(0.E0,0.E0,1.E0));
#219=DIRECTION('',(1.E0,0.E0,0.E0));
#220=AXIS2_PLACEMENT_3D('',#217,#218,#219);
#221=PLANE('',#220);
#223=ORIENTED_EDGE('',*,*,#222,.T.);
#225=ORIENTED_EDGE('',*,*,#224,.T.);
#226=EDGE_LOOP('',(#223,#225));
#227=FACE_OUTER_BOUND('',#226,.F.);
#229=ORIENTED_EDGE('',*,*,#228,.T.);
#231=ORIENTED_EDGE('',*,*,#230,.T.);
#232=EDGE_LOOP('',(#229,#231));
#233=FACE_BOUND('',#232,.F.);
#235=ORIENTED_EDGE('',*,*,#234,.T.);
#237=ORIENTED_EDGE('',*,*,#236,.T.);
#238=EDGE_LOOP('',(#235,#237));
#239=FACE_BOUND('',#238,.F.);
#241=CARTESIAN_POINT('',(0.E0,0.E0,0.E0));
#242=DIRECTION('',(0.E0,0.E0,1.E0));
#243=DIRECTION('',(1.E0,0.E0,0.E0));
#244=AXIS2_PLACEMENT_3D('',#241,#242,#243);
#245=CYLINDRICAL_SURFACE('',#244,6.35E0);
#246=ORIENTED_EDGE('',*,*,#222,.F.);
#248=ORIENTED_EDGE('',*,*,#247,.T.);
#250=ORIENTED_EDGE('',*,*,#249,.T.);
#252=ORIENTED_EDGE('',*,*,#251,.F.);
#253=EDGE_LOOP('',(#246,#248,#250,#252));
#254=FACE_OUTER_BOUND('',#253,.F.);
#256=CARTESIAN_POINT('',(0.E0,0.E0,0.E0));
#257=DIRECTION('',(0.E0,0.E0,1.E0));
#258=DIRECTION('',(1.E0,0.E0,0.E0));
#259=AXIS2_PLACEMENT_3D('',#256,#257,#258);
#260=CYLINDRICAL_SURFACE('',#259,6.35E0);
#261=ORIENTED_EDGE('',*,*,#224,.F.);
#262=ORIENTED_EDGE('',*,*,#251,.T.);
#264=ORIENTED_EDGE('',*,*,#263,.T.);
#265=ORIENTED_EDGE('',*,*,#247,.F.);
#266=EDGE_LOOP('',(#261,#262,#264,#265));
#267=FACE_OUTER_BOUND('',#266,.F.);
#269=CARTESIAN_POINT('',(0.E0,0.E0,1.E2));
#270=DIRECTION('',(0.E0,0.E0,1.E0));
#271=DIRECTION('',(1.E0,0.E0,0.E0));
#272=AXIS2_PLACEMENT_3D('',#269,#270,#271);
#273=PLANE('',#272);
#274=ORIENTED_EDGE('',*,*,#249,.F.);
#275=ORIENTED_EDGE('',*,*,#263,.F.);
#276=EDGE_LOOP('',(#274,#275));
#277=FACE_OUTER_BOUND('',#276,.F.);
#279=ORIENTED_EDGE('',*,*,#278,.T.);
#281=ORIENTED_EDGE('',*,*,#280,.T.);
#282=EDGE_LOOP('',(#279,#281));
#283=FACE_BOUND('',#282,.F.);
#285=ORIENTED_EDGE('',*,*,#284,.T.);
#287=ORIENTED_EDGE('',*,*,#286,.T.);
#288=EDGE_LOOP('',(#285,#287));
#289=FACE_BOUND('',#288,.F.);
#291=ORIENTED_EDGE('',*,*,#290,.T.);
#293=ORIENTED_EDGE('',*,*,#292,.T.);
#294=EDGE_LOOP('',(#291,#293));
#295=FACE_BOUND('',#294,.F.);
#297=CARTESIAN_POINT('',(0.E0,0.E0,1.E2));
#298=DIRECTION('',(0.E0,0.E0,1.E0));
#299=DIRECTION('',(0.E0,-1.E0,0.E0));
#300=AXIS2_PLACEMENT_3D('',#297,#298,#299);
#301=CYLINDRICAL_SURFACE('',#300,5.475507272230E-1);
#302=ORIENTED_EDGE('',*,*,#278,.F.);
#304=ORIENTED_EDGE('',*,*,#303,.T.);
#306=ORIENTED_EDGE('',*,*,#305,.T.);
#308=ORIENTED_EDGE('',*,*,#307,.F.);
#309=EDGE_LOOP('',(#302,#304,#306,#308));
#310=FACE_OUTER_BOUND('',#309,.F.);
#312=CARTESIAN_POINT('',(0.E0,0.E0,1.E2));
#313=DIRECTION('',(0.E0,0.E0,1.E0));
#314=DIRECTION('',(0.E0,-1.E0,0.E0));
#315=AXIS2_PLACEMENT_3D('',#312,#313,#314);
#316=CYLINDRICAL_SURFACE('',#315,5.475507272230E-1);
#317=ORIENTED_EDGE('',*,*,#280,.F.);
#318=ORIENTED_EDGE('',*,*,#307,.T.);
#320=ORIENTED_EDGE('',*,*,#319,.T.);
#321=ORIENTED_EDGE('',*,*,#303,.F.);
#322=EDGE_LOOP('',(#317,#318,#320,#321));
#323=FACE_OUTER_BOUND('',#322,.F.);
#325=CARTESIAN_POINT('',(0.E0,0.E0,1.3167E2));
#326=DIRECTION('',(0.E0,0.E0,1.E0));
#327=DIRECTION('',(0.E0,-1.E0,0.E0));
#328=AXIS2_PLACEMENT_3D('',#325,#326,#327);
#329=PLANE('',#328);
#330=ORIENTED_EDGE('',*,*,#305,.F.);
#331=ORIENTED_EDGE('',*,*,#319,.F.);
#332=EDGE_LOOP('',(#330,#331));
#333=FACE_OUTER_BOUND('',#332,.F.);
#335=CARTESIAN_POINT('',(0.E0,0.E0,1.3167E2));
#336=DIRECTION('',(0.E0,0.E0,1.E0));
#337=DIRECTION('',(0.E0,-1.E0,0.E0));
#338=AXIS2_PLACEMENT_3D('',#335,#336,#337);
#339=PLANE('',#338);
#341=ORIENTED_EDGE('',*,*,#340,.F.);
#343=ORIENTED_EDGE('',*,*,#342,.F.);
#344=EDGE_LOOP('',(#341,#343));
#345=FACE_OUTER_BOUND('',#344,.F.);
#347=CARTESIAN_POINT('',(0.E0,0.E0,1.3167E2));
#348=DIRECTION('',(0.E0,0.E0,1.E0));
#349=DIRECTION('',(0.E0,-1.E0,0.E0));
#350=AXIS2_PLACEMENT_3D('',#347,#348,#349);
#351=PLANE('',#350);
#353=ORIENTED_EDGE('',*,*,#352,.F.);
#355=ORIENTED_EDGE('',*,*,#354,.F.);
#356=EDGE_LOOP('',(#353,#355));
#357=FACE_OUTER_BOUND('',#356,.F.);
#359=CARTESIAN_POINT('',(0.E0,-2.997924466286E0,1.E2));
#360=DIRECTION('',(0.E0,0.E0,1.E0));
#361=DIRECTION('',(0.E0,-1.E0,0.E0));
#362=AXIS2_PLACEMENT_3D('',#359,#360,#361);
#363=CYLINDRICAL_SURFACE('',#362,5.475507272230E-1);
#364=ORIENTED_EDGE('',*,*,#284,.F.);
#366=ORIENTED_EDGE('',*,*,#365,.T.);
#367=ORIENTED_EDGE('',*,*,#340,.T.);
#369=ORIENTED_EDGE('',*,*,#368,.F.);
#370=EDGE_LOOP('',(#364,#366,#367,#369));
#371=FACE_OUTER_BOUND('',#370,.F.);
#373=CARTESIAN_POINT('',(0.E0,-2.997924466286E0,1.E2));
#374=DIRECTION('',(0.E0,0.E0,1.E0));
#375=DIRECTION('',(0.E0,-1.E0,0.E0));
#376=AXIS2_PLACEMENT_3D('',#373,#374,#375);
#377=CYLINDRICAL_SURFACE('',#376,5.475507272230E-1);
#378=ORIENTED_EDGE('',*,*,#286,.F.);
#379=ORIENTED_EDGE('',*,*,#368,.T.);
#380=ORIENTED_EDGE('',*,*,#342,.T.);
#381=ORIENTED_EDGE('',*,*,#365,.F.);
#382=EDGE_LOOP('',(#378,#379,#380,#381));
#383=FACE_OUTER_BOUND('',#382,.F.);
#385=CARTESIAN_POINT('',(0.E0,3.835579831866E0,1.E2));
#386=DIRECTION('',(0.E0,0.E0,1.E0));
#387=DIRECTION('',(0.E0,-1.E0,0.E0));
#388=AXIS2_PLACEMENT_3D('',#385,#386,#387);
#389=CYLINDRICAL_SURFACE('',#388,5.475507272230E-1);
#390=ORIENTED_EDGE('',*,*,#290,.F.);
#392=ORIENTED_EDGE('',*,*,#391,.T.);
#393=ORIENTED_EDGE('',*,*,#352,.T.);
#395=ORIENTED_EDGE('',*,*,#394,.F.);
#396=EDGE_LOOP('',(#390,#392,#393,#395));
#397=FACE_OUTER_BOUND('',#396,.F.);
#399=CARTESIAN_POINT('',(0.E0,3.835579831866E0,1.E2));
#400=DIRECTION('',(0.E0,0.E0,1.E0));
#401=DIRECTION('',(0.E0,-1.E0,0.E0));
#402=AXIS2_PLACEMENT_3D('',#399,#400,#401);
#403=CYLINDRICAL_SURFACE('',#402,5.475507272230E-1);
#404=ORIENTED_EDGE('',*,*,#292,.F.);
#405=ORIENTED_EDGE('',*,*,#394,.T.);
#406=ORIENTED_EDGE('',*,*,#354,.T.);
#407=ORIENTED_EDGE('',*,*,#391,.F.);
#408=EDGE_LOOP('',(#404,#405,#406,#407));
#409=FACE_OUTER_BOUND('',#408,.F.);
#411=CARTESIAN_POINT('',(0.E0,-1.688523507732E0,0.E0));
#412=DIRECTION('',(0.E0,0.E0,-1.E0));
#413=DIRECTION('',(0.E0,-1.E0,0.E0));
#414=AXIS2_PLACEMENT_3D('',#411,#412,#413);
#415=CYLINDRICAL_SURFACE('',#414,5.411934319655E-1);
#416=ORIENTED_EDGE('',*,*,#228,.F.);
#418=ORIENTED_EDGE('',*,*,#417,.T.);
#420=ORIENTED_EDGE('',*,*,#419,.T.);
#422=ORIENTED_EDGE('',*,*,#421,.F.);
#423=EDGE_LOOP('',(#416,#418,#420,#422));
#424=FACE_OUTER_BOUND('',#423,.F.);
#426=CARTESIAN_POINT('',(0.E0,-1.688523507732E0,0.E0));
#427=DIRECTION('',(0.E0,0.E0,-1.E0));
#428=DIRECTION('',(0.E0,-1.E0,0.E0));
#429=AXIS2_PLACEMENT_3D('',#426,#427,#428);
#430=CYLINDRICAL_SURFACE('',#429,5.411934319655E-1);
#431=ORIENTED_EDGE('',*,*,#230,.F.);
#432=ORIENTED_EDGE('',*,*,#421,.T.);
#434=ORIENTED_EDGE('',*,*,#433,.T.);
#435=ORIENTED_EDGE('',*,*,#417,.F.);
#436=EDGE_LOOP('',(#431,#432,#434,#435));
#437=FACE_OUTER_BOUND('',#436,.F.);
#439=CARTESIAN_POINT('',(0.E0,0.E0,-2.54E1));
#440=DIRECTION('',(0.E0,0.E0,-1.E0));
#441=DIRECTION('',(0.E0,-1.E0,0.E0));
#442=AXIS2_PLACEMENT_3D('',#439,#440,#441);
#443=PLANE('',#442);
#444=ORIENTED_EDGE('',*,*,#419,.F.);
#445=ORIENTED_EDGE('',*,*,#433,.F.);
#446=EDGE_LOOP('',(#444,#445));
#447=FACE_OUTER_BOUND('',#446,.F.);
#449=CARTESIAN_POINT('',(0.E0,0.E0,-2.54E1));
#450=DIRECTION('',(0.E0,0.E0,-1.E0));
#451=DIRECTION('',(0.E0,-1.E0,0.E0));
#452=AXIS2_PLACEMENT_3D('',#449,#450,#451);
#453=PLANE('',#452);
#455=ORIENTED_EDGE('',*,*,#454,.F.);
#457=ORIENTED_EDGE('',*,*,#456,.F.);
#458=EDGE_LOOP('',(#455,#457));
#459=FACE_OUTER_BOUND('',#458,.F.);
#461=CARTESIAN_POINT('',(0.E0,2.662671685270E0,0.E0));
#462=DIRECTION('',(0.E0,0.E0,-1.E0));
#463=DIRECTION('',(0.E0,-1.E0,0.E0));
#464=AXIS2_PLACEMENT_3D('',#461,#462,#463);
#465=CYLINDRICAL_SURFACE('',#464,5.411934319655E-1);
#466=ORIENTED_EDGE('',*,*,#234,.F.);
#468=ORIENTED_EDGE('',*,*,#467,.T.);
#469=ORIENTED_EDGE('',*,*,#454,.T.);
#471=ORIENTED_EDGE('',*,*,#470,.F.);
#472=EDGE_LOOP('',(#466,#468,#469,#471));
#473=FACE_OUTER_BOUND('',#472,.F.);
#475=CARTESIAN_POINT('',(0.E0,2.662671685270E0,0.E0));
#476=DIRECTION('',(0.E0,0.E0,-1.E0));
#477=DIRECTION('',(0.E0,-1.E0,0.E0));
#478=AXIS2_PLACEMENT_3D('',#475,#476,#477);
#479=CYLINDRICAL_SURFACE('',#478,5.411934319655E-1);
#480=ORIENTED_EDGE('',*,*,#236,.F.);
#481=ORIENTED_EDGE('',*,*,#470,.T.);
#482=ORIENTED_EDGE('',*,*,#456,.T.);
#483=ORIENTED_EDGE('',*,*,#467,.F.);
#484=EDGE_LOOP('',(#480,#481,#482,#483));
#485=FACE_OUTER_BOUND('',#484,.F.);
#487=CLOSED_SHELL('',(#240,#255,#268,#296,#311,#324,#334,#346,#358,#372,#384,
#398,#410,#425,#438,#448,#460,#474,#486));
#488=MANIFOLD_SOLID_BREP('',#487);
#490=DIMENSIONAL_EXPONENTS(0.E0,0.E0,0.E0,0.E0,0.E0,0.E0,0.E0);
#492=PLANE_ANGLE_MEASURE_WITH_UNIT(PLANE_ANGLE_MEASURE(1.745329251994E-2),#491);
#493=(CONVERSION_BASED_UNIT('DEGREE',#492)NAMED_UNIT(*)PLANE_ANGLE_UNIT());
#495=UNCERTAINTY_MEASURE_WITH_UNIT(LENGTH_MEASURE(6.586981356068E-3),#489,
'closure',
'Maximum model space distance between geometric entities at asserted connectivities');
#498=APPLICATION_CONTEXT(
'CONFIGURATION CONTROLLED 3D DESIGNS OF MECHANICAL PARTS AND ASSEMBLIES');
#499=APPLICATION_PROTOCOL_DEFINITION('international standard',
'config_control_design',1994,#498);
#500=DESIGN_CONTEXT('',#498,'design');
#501=MECHANICAL_CONTEXT('',#498,'mechanical');
#502=PRODUCT('1669-01','1669-01','NOT SPECIFIED',(#501));
#503=PRODUCT_DEFINITION_FORMATION_WITH_SPECIFIED_SOURCE('1','LAST_VERSION',#502,
.MADE.);
#507=PRODUCT_CATEGORY('part','');
#508=PRODUCT_RELATED_PRODUCT_CATEGORY('detail','',(#502));
#509=PRODUCT_CATEGORY_RELATIONSHIP('','',#507,#508);
#510=SECURITY_CLASSIFICATION_LEVEL('unclassified');
#511=SECURITY_CLASSIFICATION('','',#510);
#512=CC_DESIGN_SECURITY_CLASSIFICATION(#511,(#503));
#513=APPROVAL_STATUS('approved');
#514=APPROVAL(#513,'');
#515=CC_DESIGN_APPROVAL(#514,(#511,#503,#504));
#516=CALENDAR_DATE(112,24,8);
#517=COORDINATED_UNIVERSAL_TIME_OFFSET(7,0,.BEHIND.);
#518=LOCAL_TIME(11,28,1.9E1,#517);
#519=DATE_AND_TIME(#516,#518);
#520=APPROVAL_DATE_TIME(#519,#514);
#521=DATE_TIME_ROLE('creation_date');
#522=CC_DESIGN_DATE_AND_TIME_ASSIGNMENT(#519,#521,(#504));
#523=DATE_TIME_ROLE('classification_date');
#524=CC_DESIGN_DATE_AND_TIME_ASSIGNMENT(#519,#523,(#511));
#525=PERSON('UNSPECIFIED','UNSPECIFIED',$,$,$,$);
#526=ORGANIZATION('UNSPECIFIED','UNSPECIFIED','UNSPECIFIED');
#527=PERSON_AND_ORGANIZATION(#525,#526);
#528=APPROVAL_ROLE('approver');
#529=APPROVAL_PERSON_ORGANIZATION(#527,#514,#528);
#530=PERSON_AND_ORGANIZATION_ROLE('creator');
#531=CC_DESIGN_PERSON_AND_ORGANIZATION_ASSIGNMENT(#527,#530,(#503,#504));
#532=PERSON_AND_ORGANIZATION_ROLE('design_supplier');
#533=CC_DESIGN_PERSON_AND_ORGANIZATION_ASSIGNMENT(#527,#532,(#503));
#534=PERSON_AND_ORGANIZATION_ROLE('classification_officer');
#535=CC_DESIGN_PERSON_AND_ORGANIZATION_ASSIGNMENT(#527,#534,(#511));
#536=PERSON_AND_ORGANIZATION_ROLE('design_owner');
#537=CC_DESIGN_PERSON_AND_ORGANIZATION_ASSIGNMENT(#527,#536,(#502));
#5=CIRCLE('',#4,6.35E0);
#10=CIRCLE('',#9,6.35E0);
#15=CIRCLE('',#14,5.411934319655E-1);
#20=CIRCLE('',#19,5.411934319655E-1);
#25=CIRCLE('',#24,5.411934319655E-1);
#30=CIRCLE('',#29,5.411934319655E-1);
#43=CIRCLE('',#42,6.35E0);
#48=CIRCLE('',#47,6.35E0);
#53=CIRCLE('',#52,5.475507272230E-1);
#58=CIRCLE('',#57,5.475507272230E-1);
#63=CIRCLE('',#62,5.475507272230E-1);
#68=CIRCLE('',#67,5.475507272230E-1);
#73=CIRCLE('',#72,5.475507272230E-1);
#78=CIRCLE('',#77,5.475507272230E-1);
#91=CIRCLE('',#90,5.475507272230E-1);
#96=CIRCLE('',#95,5.475507272230E-1);
#101=CIRCLE('',#100,5.475507272230E-1);
#106=CIRCLE('',#105,5.475507272230E-1);
#111=CIRCLE('',#110,5.475507272230E-1);
#116=CIRCLE('',#115,5.475507272230E-1);
#145=CIRCLE('',#144,5.411934319655E-1);
#150=CIRCLE('',#149,5.411934319655E-1);
#155=CIRCLE('',#154,5.411934319655E-1);
#160=CIRCLE('',#159,5.411934319655E-1);
#222=EDGE_CURVE('',#171,#172,#5,.T.);
#224=EDGE_CURVE('',#172,#171,#10,.T.);
#228=EDGE_CURVE('',#187,#188,#15,.T.);
#230=EDGE_CURVE('',#188,#187,#20,.T.);
#234=EDGE_CURVE('',#191,#192,#25,.T.);
#236=EDGE_CURVE('',#192,#191,#30,.T.);
#240=ADVANCED_FACE('',(#227,#233,#239),#221,.F.);
#247=EDGE_CURVE('',#171,#175,#34,.T.);
#249=EDGE_CURVE('',#175,#176,#43,.T.);
#251=EDGE_CURVE('',#172,#176,#38,.T.);
#255=ADVANCED_FACE('',(#254),#245,.T.);
#263=EDGE_CURVE('',#176,#175,#48,.T.);
#268=ADVANCED_FACE('',(#267),#260,.T.);
#278=EDGE_CURVE('',#207,#208,#53,.T.);
#280=EDGE_CURVE('',#208,#207,#58,.T.);
#284=EDGE_CURVE('',#211,#212,#63,.T.);
#286=EDGE_CURVE('',#212,#211,#68,.T.);
#290=EDGE_CURVE('',#215,#216,#73,.T.);
#292=EDGE_CURVE('',#216,#215,#78,.T.);
#296=ADVANCED_FACE('',(#277,#283,#289,#295),#273,.T.);
#303=EDGE_CURVE('',#207,#195,#82,.T.);
#305=EDGE_CURVE('',#195,#196,#91,.T.);
#307=EDGE_CURVE('',#208,#196,#86,.T.);
#311=ADVANCED_FACE('',(#310),#301,.T.);
#319=EDGE_CURVE('',#196,#195,#96,.T.);
#324=ADVANCED_FACE('',(#323),#316,.T.);
#334=ADVANCED_FACE('',(#333),#329,.T.);
#340=EDGE_CURVE('',#199,#200,#101,.T.);
#342=EDGE_CURVE('',#200,#199,#106,.T.);
#346=ADVANCED_FACE('',(#345),#339,.T.);
#352=EDGE_CURVE('',#203,#204,#111,.T.);
#354=EDGE_CURVE('',#204,#203,#116,.T.);
#358=ADVANCED_FACE('',(#357),#351,.T.);
#365=EDGE_CURVE('',#211,#199,#120,.T.);
#368=EDGE_CURVE('',#212,#200,#124,.T.);
#372=ADVANCED_FACE('',(#371),#363,.T.);
#384=ADVANCED_FACE('',(#383),#377,.T.);
#391=EDGE_CURVE('',#215,#203,#128,.T.);
#394=EDGE_CURVE('',#216,#204,#132,.T.);
#398=ADVANCED_FACE('',(#397),#389,.T.);
#410=ADVANCED_FACE('',(#409),#403,.T.);
#417=EDGE_CURVE('',#187,#179,#136,.T.);
#419=EDGE_CURVE('',#179,#180,#145,.T.);
#421=EDGE_CURVE('',#188,#180,#140,.T.);
#425=ADVANCED_FACE('',(#424),#415,.T.);
#433=EDGE_CURVE('',#180,#179,#150,.T.);
#438=ADVANCED_FACE('',(#437),#430,.T.);
#448=ADVANCED_FACE('',(#447),#443,.T.);
#454=EDGE_CURVE('',#183,#184,#155,.T.);
#456=EDGE_CURVE('',#184,#183,#160,.T.);
#460=ADVANCED_FACE('',(#459),#453,.T.);
#467=EDGE_CURVE('',#191,#183,#164,.T.);
#470=EDGE_CURVE('',#192,#184,#168,.T.);
#474=ADVANCED_FACE('',(#473),#465,.T.);
#486=ADVANCED_FACE('',(#485),#479,.T.);
#489=(LENGTH_UNIT()NAMED_UNIT(*)SI_UNIT(.MILLI.,.METRE.));
#491=(NAMED_UNIT(*)PLANE_ANGLE_UNIT()SI_UNIT($,.RADIAN.));
#494=(NAMED_UNIT(*)SI_UNIT($,.STERADIAN.)SOLID_ANGLE_UNIT());
#496=(GEOMETRIC_REPRESENTATION_CONTEXT(3)GLOBAL_UNCERTAINTY_ASSIGNED_CONTEXT((
#495))GLOBAL_UNIT_ASSIGNED_CONTEXT((#489,#493,#494))REPRESENTATION_CONTEXT
('ID1','3'));
#497=ADVANCED_BREP_SHAPE_REPRESENTATION('',(#488),#496);
#504=PRODUCT_DEFINITION('design','',#503,#500);
#505=PRODUCT_DEFINITION_SHAPE('','SHAPE FOR 1669-01.',#504);
#506=SHAPE_DEFINITION_REPRESENTATION(#505,#497);
ENDSEC;
END-ISO-10303-21;
