ISO-10303-21;
HEADER;
FILE_DESCRIPTION((''),'2;1');
FILE_NAME('1669-01','2012-08-24T',('ryans'),('Bourns, Inc.'),
'PRO/ENGINEER BY PARAMETRIC TECHNOLOGY CORPORATION, 2010100',
'PRO/ENGINEER BY PARAMETRIC TECHNOLOGY CORPORATION, 2010100','');
FILE_SCHEMA(('CONFIG_CONTROL_DESIGN'));
ENDSEC;
DATA;
#1=CARTESIAN_POINT('',(0.E0,0.E0,0.E0));
#2=DIRECTION('',(0.E0,0.E0,1.E0));
#3=DIRECTION('',(1.E0,0.E0,0.E0));
#4=AXIS2_PLACEMENT_3D('',#1,#2,#3);
#6=CARTESIAN_POINT('',(0.E0,0.E0,0.E0));
#7=DIRECTION('',(0.E0,0.E0,1.E0));
#8=DIRECTION('',(-1.E0,0.E0,0.E0));
#9=AXIS2_PLACEMENT_3D('',#6,#7,#8);
#11=DIRECTION('',(0.E0,0.E0,1.E0));
#12=VECTOR('',#11,1.15E2);
#13=CARTESIAN_POINT('',(6.35E0,0.E0,0.E0));
#14=LINE('',#13,#12);
#15=DIRECTION('',(0.E0,0.E0,1.E0));
#16=VECTOR('',#15,1.15E2);
#17=CARTESIAN_POINT('',(-6.35E0,0.E0,0.E0));
#18=LINE('',#17,#16);
#19=CARTESIAN_POINT('',(0.E0,0.E0,1.15E2));
#20=DIRECTION('',(0.E0,0.E0,1.E0));
#21=DIRECTION('',(1.E0,0.E0,0.E0));
#22=AXIS2_PLACEMENT_3D('',#19,#20,#21);
#24=CARTESIAN_POINT('',(0.E0,0.E0,1.15E2));
#25=DIRECTION('',(0.E0,0.E0,1.E0));
#26=DIRECTION('',(-1.E0,0.E0,0.E0));
#27=AXIS2_PLACEMENT_3D('',#24,#25,#26);
#29=CARTESIAN_POINT('',(0.E0,0.E0,1.15E2));
#30=DIRECTION('',(0.E0,0.E0,1.E0));
#31=DIRECTION('',(0.E0,-1.E0,0.E0));
#32=AXIS2_PLACEMENT_3D('',#29,#30,#31);
#34=CARTESIAN_POINT('',(0.E0,0.E0,1.15E2));
#35=DIRECTION('',(0.E0,0.E0,1.E0));
#36=DIRECTION('',(0.E0,1.E0,0.E0));
#37=AXIS2_PLACEMENT_3D('',#34,#35,#36);
#39=CARTESIAN_POINT('',(0.E0,-2.997924466286E0,1.15E2));
#40=DIRECTION('',(0.E0,0.E0,1.E0));
#41=DIRECTION('',(0.E0,-1.E0,0.E0));
#42=AXIS2_PLACEMENT_3D('',#39,#40,#41);
#44=CARTESIAN_POINT('',(0.E0,-2.997924466286E0,1.15E2));
#45=DIRECTION('',(0.E0,0.E0,1.E0));
#46=DIRECTION('',(0.E0,1.E0,0.E0));
#47=AXIS2_PLACEMENT_3D('',#44,#45,#46);
#49=CARTESIAN_POINT('',(0.E0,3.835579831866E0,1.15E2));
#50=DIRECTION('',(0.E0,0.E0,1.E0));
#51=DIRECTION('',(0.E0,-1.E0,0.E0));
#52=AXIS2_PLACEMENT_3D('',#49,#50,#51);
#54=CARTESIAN_POINT('',(0.E0,3.835579831866E0,1.15E2));
#55=DIRECTION('',(0.E0,0.E0,1.E0));
#56=DIRECTION('',(0.E0,1.E0,0.E0));
#57=AXIS2_PLACEMENT_3D('',#54,#55,#56);
#59=CARTESIAN_POINT('',(1.360596413376E0,2.165365496182E0,1.15E2));
#60=DIRECTION('',(0.E0,0.E0,1.E0));
#61=DIRECTION('',(0.E0,-1.E0,0.E0));
#62=AXIS2_PLACEMENT_3D('',#59,#60,#61);
#64=CARTESIAN_POINT('',(1.360596413376E0,2.165365496182E0,1.15E2));
#65=DIRECTION('',(0.E0,0.E0,1.E0));
#66=DIRECTION('',(0.E0,1.E0,0.E0));
#67=AXIS2_PLACEMENT_3D('',#64,#65,#66);
#69=CARTESIAN_POINT('',(-9.806948701743E-1,-1.313749588720E0,1.15E2));
#70=DIRECTION('',(0.E0,0.E0,1.E0));
#71=DIRECTION('',(0.E0,-1.E0,0.E0));
#72=AXIS2_PLACEMENT_3D('',#69,#70,#71);
#74=CARTESIAN_POINT('',(-9.806948701743E-1,-1.313749588720E0,1.15E2));
#75=DIRECTION('',(0.E0,0.E0,1.E0));
#76=DIRECTION('',(0.E0,1.E0,0.E0));
#77=AXIS2_PLACEMENT_3D('',#74,#75,#76);
#79=DIRECTION('',(0.E0,0.E0,1.E0));
#80=VECTOR('',#79,3.167E1);
#81=CARTESIAN_POINT('',(0.E0,-5.475507272230E-1,1.15E2));
#82=LINE('',#81,#80);
#83=DIRECTION('',(0.E0,0.E0,1.E0));
#84=VECTOR('',#83,3.167E1);
#85=CARTESIAN_POINT('',(0.E0,5.475507272230E-1,1.15E2));
#86=LINE('',#85,#84);
#87=CARTESIAN_POINT('',(0.E0,0.E0,1.4667E2));
#88=DIRECTION('',(0.E0,0.E0,1.E0));
#89=DIRECTION('',(0.E0,-1.E0,0.E0));
#90=AXIS2_PLACEMENT_3D('',#87,#88,#89);
#92=CARTESIAN_POINT('',(0.E0,0.E0,1.4667E2));
#93=DIRECTION('',(0.E0,0.E0,1.E0));
#94=DIRECTION('',(0.E0,1.E0,0.E0));
#95=AXIS2_PLACEMENT_3D('',#92,#93,#94);
#97=CARTESIAN_POINT('',(0.E0,-2.997924466286E0,1.4667E2));
#98=DIRECTION('',(0.E0,0.E0,1.E0));
#99=DIRECTION('',(0.E0,-1.E0,0.E0));
#100=AXIS2_PLACEMENT_3D('',#97,#98,#99);
#102=CARTESIAN_POINT('',(0.E0,-2.997924466286E0,1.4667E2));
#103=DIRECTION('',(0.E0,0.E0,1.E0));
#104=DIRECTION('',(0.E0,1.E0,0.E0));
#105=AXIS2_PLACEMENT_3D('',#102,#103,#104);
#107=CARTESIAN_POINT('',(0.E0,3.835579831866E0,1.4667E2));
#108=DIRECTION('',(0.E0,0.E0,1.E0));
#109=DIRECTION('',(0.E0,-1.E0,0.E0));
#110=AXIS2_PLACEMENT_3D('',#107,#108,#109);
#112=CARTESIAN_POINT('',(0.E0,3.835579831866E0,1.4667E2));
#113=DIRECTION('',(0.E0,0.E0,1.E0));
#114=DIRECTION('',(0.E0,1.E0,0.E0));
#115=AXIS2_PLACEMENT_3D('',#112,#113,#114);
#117=CARTESIAN_POINT('',(1.360596413376E0,2.165365496182E0,1.4667E2));
#118=DIRECTION('',(0.E0,0.E0,1.E0));
#119=DIRECTION('',(0.E0,-1.E0,0.E0));
#120=AXIS2_PLACEMENT_3D('',#117,#118,#119);
#122=CARTESIAN_POINT('',(1.360596413376E0,2.165365496182E0,1.4667E2));
#123=DIRECTION('',(0.E0,0.E0,1.E0));
#124=DIRECTION('',(0.E0,1.E0,0.E0));
#125=AXIS2_PLACEMENT_3D('',#122,#123,#124);
#127=CARTESIAN_POINT('',(-9.806948701743E-1,-1.313749588720E0,1.4667E2));
#128=DIRECTION('',(0.E0,0.E0,1.E0));
#129=DIRECTION('',(0.E0,-1.E0,0.E0));
#130=AXIS2_PLACEMENT_3D('',#127,#128,#129);
#132=CARTESIAN_POINT('',(-9.806948701743E-1,-1.313749588720E0,1.4667E2));
#133=DIRECTION('',(0.E0,0.E0,1.E0));
#134=DIRECTION('',(0.E0,1.E0,0.E0));
#135=AXIS2_PLACEMENT_3D('',#132,#133,#134);
#137=DIRECTION('',(0.E0,0.E0,1.E0));
#138=VECTOR('',#137,3.167E1);
#139=CARTESIAN_POINT('',(0.E0,-3.545475193509E0,1.15E2));
#140=LINE('',#139,#138);
#141=DIRECTION('',(0.E0,0.E0,1.E0));
#142=VECTOR('',#141,3.167E1);
#143=CARTESIAN_POINT('',(0.E0,-2.450373739063E0,1.15E2));
#144=LINE('',#143,#142);
#145=DIRECTION('',(0.E0,0.E0,1.E0));
#146=VECTOR('',#145,3.167E1);
#147=CARTESIAN_POINT('',(0.E0,3.288029104643E0,1.15E2));
#148=LINE('',#147,#146);
#149=DIRECTION('',(0.E0,0.E0,1.E0));
#150=VECTOR('',#149,3.167E1);
#151=CARTESIAN_POINT('',(0.E0,4.383130559089E0,1.15E2));
#152=LINE('',#151,#150);
#153=DIRECTION('',(0.E0,0.E0,1.E0));
#154=VECTOR('',#153,3.167E1);
#155=CARTESIAN_POINT('',(1.360596413376E0,1.617814768959E0,1.15E2));
#156=LINE('',#155,#154);
#157=DIRECTION('',(0.E0,0.E0,1.E0));
#158=VECTOR('',#157,3.167E1);
#159=CARTESIAN_POINT('',(1.360596413376E0,2.712916223405E0,1.15E2));
#160=LINE('',#159,#158);
#161=DIRECTION('',(0.E0,0.E0,1.E0));
#162=VECTOR('',#161,3.167E1);
#163=CARTESIAN_POINT('',(-9.806948701743E-1,-1.861300315943E0,1.15E2));
#164=LINE('',#163,#162);
#165=DIRECTION('',(0.E0,0.E0,1.E0));
#166=VECTOR('',#165,3.167E1);
#167=CARTESIAN_POINT('',(-9.806948701743E-1,-7.661988614972E-1,1.15E2));
#168=LINE('',#167,#166);
#169=CARTESIAN_POINT('',(6.35E0,0.E0,0.E0));
#170=CARTESIAN_POINT('',(-6.35E0,0.E0,0.E0));
#171=VERTEX_POINT('',#169);
#172=VERTEX_POINT('',#170);
#173=CARTESIAN_POINT('',(6.35E0,0.E0,1.15E2));
#174=CARTESIAN_POINT('',(-6.35E0,0.E0,1.15E2));
#175=VERTEX_POINT('',#173);
#176=VERTEX_POINT('',#174);
#177=CARTESIAN_POINT('',(0.E0,-5.475507272230E-1,1.4667E2));
#178=CARTESIAN_POINT('',(0.E0,5.475507272230E-1,1.4667E2));
#179=VERTEX_POINT('',#177);
#180=VERTEX_POINT('',#178);
#181=CARTESIAN_POINT('',(0.E0,-3.545475193509E0,1.4667E2));
#182=CARTESIAN_POINT('',(0.E0,-2.450373739063E0,1.4667E2));
#183=VERTEX_POINT('',#181);
#184=VERTEX_POINT('',#182);
#185=CARTESIAN_POINT('',(0.E0,3.288029104643E0,1.4667E2));
#186=CARTESIAN_POINT('',(0.E0,4.383130559089E0,1.4667E2));
#187=VERTEX_POINT('',#185);
#188=VERTEX_POINT('',#186);
#189=CARTESIAN_POINT('',(0.E0,-5.475507272230E-1,1.15E2));
#190=CARTESIAN_POINT('',(0.E0,5.475507272230E-1,1.15E2));
#191=VERTEX_POINT('',#189);
#192=VERTEX_POINT('',#190);
#193=CARTESIAN_POINT('',(0.E0,-3.545475193509E0,1.15E2));
#194=CARTESIAN_POINT('',(0.E0,-2.450373739063E0,1.15E2));
#195=VERTEX_POINT('',#193);
#196=VERTEX_POINT('',#194);
#197=CARTESIAN_POINT('',(0.E0,3.288029104643E0,1.15E2));
#198=CARTESIAN_POINT('',(0.E0,4.383130559089E0,1.15E2));
#199=VERTEX_POINT('',#197);
#200=VERTEX_POINT('',#198);
#201=CARTESIAN_POINT('',(1.360596413376E0,1.617814768959E0,1.4667E2));
#202=CARTESIAN_POINT('',(1.360596413376E0,2.712916223405E0,1.4667E2));
#203=VERTEX_POINT('',#201);
#204=VERTEX_POINT('',#202);
#205=CARTESIAN_POINT('',(-9.806948701743E-1,-1.861300315943E0,1.4667E2));
#206=CARTESIAN_POINT('',(-9.806948701743E-1,-7.661988614972E-1,1.4667E2));
#207=VERTEX_POINT('',#205);
#208=VERTEX_POINT('',#206);
#209=CARTESIAN_POINT('',(1.360596413376E0,1.617814768959E0,1.15E2));
#210=CARTESIAN_POINT('',(1.360596413376E0,2.712916223405E0,1.15E2));
#211=VERTEX_POINT('',#209);
#212=VERTEX_POINT('',#210);
#213=CARTESIAN_POINT('',(-9.806948701743E-1,-1.861300315943E0,1.15E2));
#214=CARTESIAN_POINT('',(-9.806948701743E-1,-7.661988614972E-1,1.15E2));
#215=VERTEX_POINT('',#213);
#216=VERTEX_POINT('',#214);
#217=CARTESIAN_POINT('',(0.E0,0.E0,0.E0));
#218=DIRECTION('',(0.E0,0.E0,1.E0));
#219=DIRECTION('',(1.E0,0.E0,0.E0));
#220=AXIS2_PLACEMENT_3D('',#217,#218,#219);
#221=PLANE('',#220);
#223=ORIENTED_EDGE('',*,*,#222,.T.);
#225=ORIENTED_EDGE('',*,*,#224,.T.);
#226=EDGE_LOOP('',(#223,#225));
#227=FACE_OUTER_BOUND('',#226,.F.);
#229=CARTESIAN_POINT('',(0.E0,0.E0,0.E0));
#230=DIRECTION('',(0.E0,0.E0,1.E0));
#231=DIRECTION('',(1.E0,0.E0,0.E0));
#232=AXIS2_PLACEMENT_3D('',#229,#230,#231);
#233=CYLINDRICAL_SURFACE('',#232,6.35E0);
#234=ORIENTED_EDGE('',*,*,#222,.F.);
#236=ORIENTED_EDGE('',*,*,#235,.T.);
#238=ORIENTED_EDGE('',*,*,#237,.T.);
#240=ORIENTED_EDGE('',*,*,#239,.F.);
#241=EDGE_LOOP('',(#234,#236,#238,#240));
#242=FACE_OUTER_BOUND('',#241,.F.);
#244=CARTESIAN_POINT('',(0.E0,0.E0,0.E0));
#245=DIRECTION('',(0.E0,0.E0,1.E0));
#246=DIRECTION('',(1.E0,0.E0,0.E0));
#247=AXIS2_PLACEMENT_3D('',#244,#245,#246);
#248=CYLINDRICAL_SURFACE('',#247,6.35E0);
#249=ORIENTED_EDGE('',*,*,#224,.F.);
#250=ORIENTED_EDGE('',*,*,#239,.T.);
#252=ORIENTED_EDGE('',*,*,#251,.T.);
#253=ORIENTED_EDGE('',*,*,#235,.F.);
#254=EDGE_LOOP('',(#249,#250,#252,#253));
#255=FACE_OUTER_BOUND('',#254,.F.);
#257=CARTESIAN_POINT('',(0.E0,0.E0,1.15E2));
#258=DIRECTION('',(0.E0,0.E0,1.E0));
#259=DIRECTION('',(1.E0,0.E0,0.E0));
#260=AXIS2_PLACEMENT_3D('',#257,#258,#259);
#261=PLANE('',#260);
#262=ORIENTED_EDGE('',*,*,#237,.F.);
#263=ORIENTED_EDGE('',*,*,#251,.F.);
#264=EDGE_LOOP('',(#262,#263));
#265=FACE_OUTER_BOUND('',#264,.F.);
#267=ORIENTED_EDGE('',*,*,#266,.T.);
#269=ORIENTED_EDGE('',*,*,#268,.T.);
#270=EDGE_LOOP('',(#267,#269));
#271=FACE_BOUND('',#270,.F.);
#273=ORIENTED_EDGE('',*,*,#272,.T.);
#275=ORIENTED_EDGE('',*,*,#274,.T.);
#276=EDGE_LOOP('',(#273,#275));
#277=FACE_BOUND('',#276,.F.);
#279=ORIENTED_EDGE('',*,*,#278,.T.);
#281=ORIENTED_EDGE('',*,*,#280,.T.);
#282=EDGE_LOOP('',(#279,#281));
#283=FACE_BOUND('',#282,.F.);
#285=ORIENTED_EDGE('',*,*,#284,.T.);
#287=ORIENTED_EDGE('',*,*,#286,.T.);
#288=EDGE_LOOP('',(#285,#287));
#289=FACE_BOUND('',#288,.F.);
#291=ORIENTED_EDGE('',*,*,#290,.T.);
#293=ORIENTED_EDGE('',*,*,#292,.T.);
#294=EDGE_LOOP('',(#291,#293));
#295=FACE_BOUND('',#294,.F.);
#297=CARTESIAN_POINT('',(0.E0,0.E0,1.15E2));
#298=DIRECTION('',(0.E0,0.E0,1.E0));
#299=DIRECTION('',(0.E0,-1.E0,0.E0));
#300=AXIS2_PLACEMENT_3D('',#297,#298,#299);
#301=CYLINDRICAL_SURFACE('',#300,5.475507272230E-1);
#302=ORIENTED_EDGE('',*,*,#266,.F.);
#304=ORIENTED_EDGE('',*,*,#303,.T.);
#306=ORIENTED_EDGE('',*,*,#305,.T.);
#308=ORIENTED_EDGE('',*,*,#307,.F.);
#309=EDGE_LOOP('',(#302,#304,#306,#308));
#310=FACE_OUTER_BOUND('',#309,.F.);
#312=CARTESIAN_POINT('',(0.E0,0.E0,1.15E2));
#313=DIRECTION('',(0.E0,0.E0,1.E0));
#314=DIRECTION('',(0.E0,-1.E0,0.E0));
#315=AXIS2_PLACEMENT_3D('',#312,#313,#314);
#316=CYLINDRICAL_SURFACE('',#315,5.475507272230E-1);
#317=ORIENTED_EDGE('',*,*,#268,.F.);
#318=ORIENTED_EDGE('',*,*,#307,.T.);
#320=ORIENTED_EDGE('',*,*,#319,.T.);
#321=ORIENTED_EDGE('',*,*,#303,.F.);
#322=EDGE_LOOP('',(#317,#318,#320,#321));
#323=FACE_OUTER_BOUND('',#322,.F.);
#325=CARTESIAN_POINT('',(0.E0,0.E0,1.4667E2));
#326=DIRECTION('',(0.E0,0.E0,1.E0));
#327=DIRECTION('',(0.E0,-1.E0,0.E0));
#328=AXIS2_PLACEMENT_3D('',#325,#326,#327);
#329=PLANE('',#328);
#330=ORIENTED_EDGE('',*,*,#305,.F.);
#331=ORIENTED_EDGE('',*,*,#319,.F.);
#332=EDGE_LOOP('',(#330,#331));
#333=FACE_OUTER_BOUND('',#332,.F.);
#335=CARTESIAN_POINT('',(0.E0,0.E0,1.4667E2));
#336=DIRECTION('',(0.E0,0.E0,1.E0));
#337=DIRECTION('',(0.E0,-1.E0,0.E0));
#338=AXIS2_PLACEMENT_3D('',#335,#336,#337);
#339=PLANE('',#338);
#341=ORIENTED_EDGE('',*,*,#340,.F.);
#343=ORIENTED_EDGE('',*,*,#342,.F.);
#344=EDGE_LOOP('',(#341,#343));
#345=FACE_OUTER_BOUND('',#344,.F.);
#347=CARTESIAN_POINT('',(0.E0,0.E0,1.4667E2));
#348=DIRECTION('',(0.E0,0.E0,1.E0));
#349=DIRECTION('',(0.E0,-1.E0,0.E0));
#350=AXIS2_PLACEMENT_3D('',#347,#348,#349);
#351=PLANE('',#350);
#353=ORIENTED_EDGE('',*,*,#352,.F.);
#355=ORIENTED_EDGE('',*,*,#354,.F.);
#356=EDGE_LOOP('',(#353,#355));
#357=FACE_OUTER_BOUND('',#356,.F.);
#359=CARTESIAN_POINT('',(0.E0,0.E0,1.4667E2));
#360=DIRECTION('',(0.E0,0.E0,1.E0));
#361=DIRECTION('',(0.E0,-1.E0,0.E0));
#362=AXIS2_PLACEMENT_3D('',#359,#360,#361);
#363=PLANE('',#362);
#365=ORIENTED_EDGE('',*,*,#364,.F.);
#367=ORIENTED_EDGE('',*,*,#366,.F.);
#368=EDGE_LOOP('',(#365,#367));
#369=FACE_OUTER_BOUND('',#368,.F.);
#371=CARTESIAN_POINT('',(0.E0,0.E0,1.4667E2));
#372=DIRECTION('',(0.E0,0.E0,1.E0));
#373=DIRECTION('',(0.E0,-1.E0,0.E0));
#374=AXIS2_PLACEMENT_3D('',#371,#372,#373);
#375=PLANE('',#374);
#377=ORIENTED_EDGE('',*,*,#376,.F.);
#379=ORIENTED_EDGE('',*,*,#378,.F.);
#380=EDGE_LOOP('',(#377,#379));
#381=FACE_OUTER_BOUND('',#380,.F.);
#383=CARTESIAN_POINT('',(0.E0,-2.997924466286E0,1.15E2));
#384=DIRECTION('',(0.E0,0.E0,1.E0));
#385=DIRECTION('',(0.E0,-1.E0,0.E0));
#386=AXIS2_PLACEMENT_3D('',#383,#384,#385);
#387=CYLINDRICAL_SURFACE('',#386,5.475507272230E-1);
#388=ORIENTED_EDGE('',*,*,#272,.F.);
#390=ORIENTED_EDGE('',*,*,#389,.T.);
#391=ORIENTED_EDGE('',*,*,#340,.T.);
#393=ORIENTED_EDGE('',*,*,#392,.F.);
#394=EDGE_LOOP('',(#388,#390,#391,#393));
#395=FACE_OUTER_BOUND('',#394,.F.);
#397=CARTESIAN_POINT('',(0.E0,-2.997924466286E0,1.15E2));
#398=DIRECTION('',(0.E0,0.E0,1.E0));
#399=DIRECTION('',(0.E0,-1.E0,0.E0));
#400=AXIS2_PLACEMENT_3D('',#397,#398,#399);
#401=CYLINDRICAL_SURFACE('',#400,5.475507272230E-1);
#402=ORIENTED_EDGE('',*,*,#274,.F.);
#403=ORIENTED_EDGE('',*,*,#392,.T.);
#404=ORIENTED_EDGE('',*,*,#342,.T.);
#405=ORIENTED_EDGE('',*,*,#389,.F.);
#406=EDGE_LOOP('',(#402,#403,#404,#405));
#407=FACE_OUTER_BOUND('',#406,.F.);
#409=CARTESIAN_POINT('',(0.E0,3.835579831866E0,1.15E2));
#410=DIRECTION('',(0.E0,0.E0,1.E0));
#411=DIRECTION('',(0.E0,-1.E0,0.E0));
#412=AXIS2_PLACEMENT_3D('',#409,#410,#411);
#413=CYLINDRICAL_SURFACE('',#412,5.475507272230E-1);
#414=ORIENTED_EDGE('',*,*,#278,.F.);
#416=ORIENTED_EDGE('',*,*,#415,.T.);
#417=ORIENTED_EDGE('',*,*,#352,.T.);
#419=ORIENTED_EDGE('',*,*,#418,.F.);
#420=EDGE_LOOP('',(#414,#416,#417,#419));
#421=FACE_OUTER_BOUND('',#420,.F.);
#423=CARTESIAN_POINT('',(0.E0,3.835579831866E0,1.15E2));
#424=DIRECTION('',(0.E0,0.E0,1.E0));
#425=DIRECTION('',(0.E0,-1.E0,0.E0));
#426=AXIS2_PLACEMENT_3D('',#423,#424,#425);
#427=CYLINDRICAL_SURFACE('',#426,5.475507272230E-1);
#428=ORIENTED_EDGE('',*,*,#280,.F.);
#429=ORIENTED_EDGE('',*,*,#418,.T.);
#430=ORIENTED_EDGE('',*,*,#354,.T.);
#431=ORIENTED_EDGE('',*,*,#415,.F.);
#432=EDGE_LOOP('',(#428,#429,#430,#431));
#433=FACE_OUTER_BOUND('',#432,.F.);
#435=CARTESIAN_POINT('',(1.360596413376E0,2.165365496182E0,1.15E2));
#436=DIRECTION('',(0.E0,0.E0,1.E0));
#437=DIRECTION('',(0.E0,-1.E0,0.E0));
#438=AXIS2_PLACEMENT_3D('',#435,#436,#437);
#439=CYLINDRICAL_SURFACE('',#438,5.475507272230E-1);
#440=ORIENTED_EDGE('',*,*,#284,.F.);
#442=ORIENTED_EDGE('',*,*,#441,.T.);
#443=ORIENTED_EDGE('',*,*,#364,.T.);
#445=ORIENTED_EDGE('',*,*,#444,.F.);
#446=EDGE_LOOP('',(#440,#442,#443,#445));
#447=FACE_OUTER_BOUND('',#446,.F.);
#449=CARTESIAN_POINT('',(1.360596413376E0,2.165365496182E0,1.15E2));
#450=DIRECTION('',(0.E0,0.E0,1.E0));
#451=DIRECTION('',(0.E0,-1.E0,0.E0));
#452=AXIS2_PLACEMENT_3D('',#449,#450,#451);
#453=CYLINDRICAL_SURFACE('',#452,5.475507272230E-1);
#454=ORIENTED_EDGE('',*,*,#286,.F.);
#455=ORIENTED_EDGE('',*,*,#444,.T.);
#456=ORIENTED_EDGE('',*,*,#366,.T.);
#457=ORIENTED_EDGE('',*,*,#441,.F.);
#458=EDGE_LOOP('',(#454,#455,#456,#457));
#459=FACE_OUTER_BOUND('',#458,.F.);
#461=CARTESIAN_POINT('',(-9.806948701743E-1,-1.313749588720E0,1.15E2));
#462=DIRECTION('',(0.E0,0.E0,1.E0));
#463=DIRECTION('',(0.E0,-1.E0,0.E0));
#464=AXIS2_PLACEMENT_3D('',#461,#462,#463);
#465=CYLINDRICAL_SURFACE('',#464,5.475507272230E-1);
#466=ORIENTED_EDGE('',*,*,#290,.F.);
#468=ORIENTED_EDGE('',*,*,#467,.T.);
#469=ORIENTED_EDGE('',*,*,#376,.T.);
#471=ORIENTED_EDGE('',*,*,#470,.F.);
#472=EDGE_LOOP('',(#466,#468,#469,#471));
#473=FACE_OUTER_BOUND('',#472,.F.);
#475=CARTESIAN_POINT('',(-9.806948701743E-1,-1.313749588720E0,1.15E2));
#476=DIRECTION('',(0.E0,0.E0,1.E0));
#477=DIRECTION('',(0.E0,-1.E0,0.E0));
#478=AXIS2_PLACEMENT_3D('',#475,#476,#477);
#479=CYLINDRICAL_SURFACE('',#478,5.475507272230E-1);
#480=ORIENTED_EDGE('',*,*,#292,.F.);
#481=ORIENTED_EDGE('',*,*,#470,.T.);
#482=ORIENTED_EDGE('',*,*,#378,.T.);
#483=ORIENTED_EDGE('',*,*,#467,.F.);
#484=EDGE_LOOP('',(#480,#481,#482,#483));
#485=FACE_OUTER_BOUND('',#484,.F.);
#487=CLOSED_SHELL('',(#228,#243,#256,#296,#311,#324,#334,#346,#358,#370,#382,
#396,#408,#422,#434,#448,#460,#474,#486));
#488=MANIFOLD_SOLID_BREP('',#487);
#490=DIMENSIONAL_EXPONENTS(0.E0,0.E0,0.E0,0.E0,0.E0,0.E0,0.E0);
#492=PLANE_ANGLE_MEASURE_WITH_UNIT(PLANE_ANGLE_MEASURE(1.745329251994E-2),#491);
#493=(CONVERSION_BASED_UNIT('DEGREE',#492)NAMED_UNIT(*)PLANE_ANGLE_UNIT());
#495=UNCERTAINTY_MEASURE_WITH_UNIT(LENGTH_MEASURE(6.156668552677E-3),#489,
'closure',
'Maximum model space distance between geometric entities at asserted connectivities');
#498=APPLICATION_CONTEXT(
'CONFIGURATION CONTROLLED 3D DESIGNS OF MECHANICAL PARTS AND ASSEMBLIES');
#499=APPLICATION_PROTOCOL_DEFINITION('international standard',
'config_control_design',1994,#498);
#500=DESIGN_CONTEXT('',#498,'design');
#501=MECHANICAL_CONTEXT('',#498,'mechanical');
#502=PRODUCT('1669-01','1669-01','NOT SPECIFIED',(#501));
#503=PRODUCT_DEFINITION_FORMATION_WITH_SPECIFIED_SOURCE('1','LAST_VERSION',#502,
.MADE.);
#507=PRODUCT_CATEGORY('part','');
#508=PRODUCT_RELATED_PRODUCT_CATEGORY('detail','',(#502));
#509=PRODUCT_CATEGORY_RELATIONSHIP('','',#507,#508);
#510=SECURITY_CLASSIFICATION_LEVEL('unclassified');
#511=SECURITY_CLASSIFICATION('','',#510);
#512=CC_DESIGN_SECURITY_CLASSIFICATION(#511,(#503));
#513=APPROVAL_STATUS('approved');
#514=APPROVAL(#513,'');
#515=CC_DESIGN_APPROVAL(#514,(#511,#503,#504));
#516=CALENDAR_DATE(112,24,8);
#517=COORDINATED_UNIVERSAL_TIME_OFFSET(7,0,.BEHIND.);
#518=LOCAL_TIME(11,30,5.9E1,#517);
#519=DATE_AND_TIME(#516,#518);
#520=APPROVAL_DATE_TIME(#519,#514);
#521=DATE_TIME_ROLE('creation_date');
#522=CC_DESIGN_DATE_AND_TIME_ASSIGNMENT(#519,#521,(#504));
#523=DATE_TIME_ROLE('classification_date');
#524=CC_DESIGN_DATE_AND_TIME_ASSIGNMENT(#519,#523,(#511));
#525=PERSON('UNSPECIFIED','UNSPECIFIED',$,$,$,$);
#526=ORGANIZATION('UNSPECIFIED','UNSPECIFIED','UNSPECIFIED');
#527=PERSON_AND_ORGANIZATION(#525,#526);
#528=APPROVAL_ROLE('approver');
#529=APPROVAL_PERSON_ORGANIZATION(#527,#514,#528);
#530=PERSON_AND_ORGANIZATION_ROLE('creator');
#531=CC_DESIGN_PERSON_AND_ORGANIZATION_ASSIGNMENT(#527,#530,(#503,#504));
#532=PERSON_AND_ORGANIZATION_ROLE('design_supplier');
#533=CC_DESIGN_PERSON_AND_ORGANIZATION_ASSIGNMENT(#527,#532,(#503));
#534=PERSON_AND_ORGANIZATION_ROLE('classification_officer');
#535=CC_DESIGN_PERSON_AND_ORGANIZATION_ASSIGNMENT(#527,#534,(#511));
#536=PERSON_AND_ORGANIZATION_ROLE('design_owner');
#537=CC_DESIGN_PERSON_AND_ORGANIZATION_ASSIGNMENT(#527,#536,(#502));
#5=CIRCLE('',#4,6.35E0);
#10=CIRCLE('',#9,6.35E0);
#23=CIRCLE('',#22,6.35E0);
#28=CIRCLE('',#27,6.35E0);
#33=CIRCLE('',#32,5.475507272230E-1);
#38=CIRCLE('',#37,5.475507272230E-1);
#43=CIRCLE('',#42,5.475507272230E-1);
#48=CIRCLE('',#47,5.475507272230E-1);
#53=CIRCLE('',#52,5.475507272230E-1);
#58=CIRCLE('',#57,5.475507272230E-1);
#63=CIRCLE('',#62,5.475507272230E-1);
#68=CIRCLE('',#67,5.475507272230E-1);
#73=CIRCLE('',#72,5.475507272230E-1);
#78=CIRCLE('',#77,5.475507272230E-1);
#91=CIRCLE('',#90,5.475507272230E-1);
#96=CIRCLE('',#95,5.475507272230E-1);
#101=CIRCLE('',#100,5.475507272230E-1);
#106=CIRCLE('',#105,5.475507272230E-1);
#111=CIRCLE('',#110,5.475507272230E-1);
#116=CIRCLE('',#115,5.475507272230E-1);
#121=CIRCLE('',#120,5.475507272230E-1);
#126=CIRCLE('',#125,5.475507272230E-1);
#131=CIRCLE('',#130,5.475507272230E-1);
#136=CIRCLE('',#135,5.475507272230E-1);
#222=EDGE_CURVE('',#171,#172,#5,.T.);
#224=EDGE_CURVE('',#172,#171,#10,.T.);
#228=ADVANCED_FACE('',(#227),#221,.F.);
#235=EDGE_CURVE('',#171,#175,#14,.T.);
#237=EDGE_CURVE('',#175,#176,#23,.T.);
#239=EDGE_CURVE('',#172,#176,#18,.T.);
#243=ADVANCED_FACE('',(#242),#233,.T.);
#251=EDGE_CURVE('',#176,#175,#28,.T.);
#256=ADVANCED_FACE('',(#255),#248,.T.);
#266=EDGE_CURVE('',#191,#192,#33,.T.);
#268=EDGE_CURVE('',#192,#191,#38,.T.);
#272=EDGE_CURVE('',#195,#196,#43,.T.);
#274=EDGE_CURVE('',#196,#195,#48,.T.);
#278=EDGE_CURVE('',#199,#200,#53,.T.);
#280=EDGE_CURVE('',#200,#199,#58,.T.);
#284=EDGE_CURVE('',#211,#212,#63,.T.);
#286=EDGE_CURVE('',#212,#211,#68,.T.);
#290=EDGE_CURVE('',#215,#216,#73,.T.);
#292=EDGE_CURVE('',#216,#215,#78,.T.);
#296=ADVANCED_FACE('',(#265,#271,#277,#283,#289,#295),#261,.T.);
#303=EDGE_CURVE('',#191,#179,#82,.T.);
#305=EDGE_CURVE('',#179,#180,#91,.T.);
#307=EDGE_CURVE('',#192,#180,#86,.T.);
#311=ADVANCED_FACE('',(#310),#301,.T.);
#319=EDGE_CURVE('',#180,#179,#96,.T.);
#324=ADVANCED_FACE('',(#323),#316,.T.);
#334=ADVANCED_FACE('',(#333),#329,.T.);
#340=EDGE_CURVE('',#183,#184,#101,.T.);
#342=EDGE_CURVE('',#184,#183,#106,.T.);
#346=ADVANCED_FACE('',(#345),#339,.T.);
#352=EDGE_CURVE('',#187,#188,#111,.T.);
#354=EDGE_CURVE('',#188,#187,#116,.T.);
#358=ADVANCED_FACE('',(#357),#351,.T.);
#364=EDGE_CURVE('',#203,#204,#121,.T.);
#366=EDGE_CURVE('',#204,#203,#126,.T.);
#370=ADVANCED_FACE('',(#369),#363,.T.);
#376=EDGE_CURVE('',#207,#208,#131,.T.);
#378=EDGE_CURVE('',#208,#207,#136,.T.);
#382=ADVANCED_FACE('',(#381),#375,.T.);
#389=EDGE_CURVE('',#195,#183,#140,.T.);
#392=EDGE_CURVE('',#196,#184,#144,.T.);
#396=ADVANCED_FACE('',(#395),#387,.T.);
#408=ADVANCED_FACE('',(#407),#401,.T.);
#415=EDGE_CURVE('',#199,#187,#148,.T.);
#418=EDGE_CURVE('',#200,#188,#152,.T.);
#422=ADVANCED_FACE('',(#421),#413,.T.);
#434=ADVANCED_FACE('',(#433),#427,.T.);
#441=EDGE_CURVE('',#211,#203,#156,.T.);
#444=EDGE_CURVE('',#212,#204,#160,.T.);
#448=ADVANCED_FACE('',(#447),#439,.T.);
#460=ADVANCED_FACE('',(#459),#453,.T.);
#467=EDGE_CURVE('',#215,#207,#164,.T.);
#470=EDGE_CURVE('',#216,#208,#168,.T.);
#474=ADVANCED_FACE('',(#473),#465,.T.);
#486=ADVANCED_FACE('',(#485),#479,.T.);
#489=(LENGTH_UNIT()NAMED_UNIT(*)SI_UNIT(.MILLI.,.METRE.));
#491=(NAMED_UNIT(*)PLANE_ANGLE_UNIT()SI_UNIT($,.RADIAN.));
#494=(NAMED_UNIT(*)SI_UNIT($,.STERADIAN.)SOLID_ANGLE_UNIT());
#496=(GEOMETRIC_REPRESENTATION_CONTEXT(3)GLOBAL_UNCERTAINTY_ASSIGNED_CONTEXT((
#495))GLOBAL_UNIT_ASSIGNED_CONTEXT((#489,#493,#494))REPRESENTATION_CONTEXT
('ID1','3'));
#497=ADVANCED_BREP_SHAPE_REPRESENTATION('',(#488),#496);
#504=PRODUCT_DEFINITION('design','',#503,#500);
#505=PRODUCT_DEFINITION_SHAPE('','SHAPE FOR 1669-01.',#504);
#506=SHAPE_DEFINITION_REPRESENTATION(#505,#497);
ENDSEC;
END-ISO-10303-21;
