ISO-10303-21;
HEADER;
FILE_DESCRIPTION((''),'2;1');
FILE_NAME('1830_SERIES','2012-08-24T',('ryans'),('Bourns, Inc.'),
'PRO/ENGINEER BY PARAMETRIC TECHNOLOGY CORPORATION, 2010100',
'PRO/ENGINEER BY PARAMETRIC TECHNOLOGY CORPORATION, 2010100','');
FILE_SCHEMA(('CONFIG_CONTROL_DESIGN'));
ENDSEC;
DATA;
#1=DIRECTION('',(1.E0,0.E0,0.E0));
#2=VECTOR('',#1,2.4004E1);
#3=CARTESIAN_POINT('',(-4.15E1,-2.55435E1,0.E0));
#4=LINE('',#3,#2);
#5=DIRECTION('',(0.E0,-1.E0,0.E0));
#6=VECTOR('',#5,1.492E1);
#7=CARTESIAN_POINT('',(-1.7496E1,-2.55435E1,0.E0));
#8=LINE('',#7,#6);
#9=DIRECTION('',(1.E0,0.E0,0.E0));
#10=VECTOR('',#9,1.6184E1);
#11=CARTESIAN_POINT('',(2.5316E1,-2.55435E1,0.E0));
#12=LINE('',#11,#10);
#13=DIRECTION('',(0.E0,1.E0,0.E0));
#14=VECTOR('',#13,2.3E1);
#15=CARTESIAN_POINT('',(4.15E1,-2.55435E1,0.E0));
#16=LINE('',#15,#14);
#17=DIRECTION('',(-7.071067811865E-1,7.071067811865E-1,0.E0));
#18=VECTOR('',#17,4.242640687119E0);
#19=CARTESIAN_POINT('',(4.15E1,-2.5435E0,0.E0));
#20=LINE('',#19,#18);
#21=DIRECTION('',(-1.E0,0.E0,0.E0));
#22=VECTOR('',#21,7.7E1);
#23=CARTESIAN_POINT('',(3.85E1,4.565E-1,0.E0));
#24=LINE('',#23,#22);
#25=DIRECTION('',(-7.071067811865E-1,-7.071067811865E-1,0.E0));
#26=VECTOR('',#25,4.242640687119E0);
#27=CARTESIAN_POINT('',(-3.85E1,4.565E-1,0.E0));
#28=LINE('',#27,#26);
#29=DIRECTION('',(0.E0,-1.E0,0.E0));
#30=VECTOR('',#29,2.3E1);
#31=CARTESIAN_POINT('',(-4.15E1,-2.5435E0,0.E0));
#32=LINE('',#31,#30);
#33=DIRECTION('',(0.E0,0.E0,1.E0));
#34=VECTOR('',#33,1.8E1);
#35=CARTESIAN_POINT('',(-1.7496E1,-2.55435E1,0.E0));
#36=LINE('',#35,#34);
#37=DIRECTION('',(0.E0,0.E0,1.E0));
#38=VECTOR('',#37,1.8E1);
#39=CARTESIAN_POINT('',(-4.15E1,-2.55435E1,0.E0));
#40=LINE('',#39,#38);
#41=DIRECTION('',(0.E0,0.E0,1.E0));
#42=VECTOR('',#41,1.8E1);
#43=CARTESIAN_POINT('',(2.5316E1,-2.55435E1,0.E0));
#44=LINE('',#43,#42);
#45=DIRECTION('',(0.E0,-1.E0,0.E0));
#46=VECTOR('',#45,1.492E1);
#47=CARTESIAN_POINT('',(-1.7496E1,-2.55435E1,1.8E1));
#48=LINE('',#47,#46);
#49=DIRECTION('',(1.E0,0.E0,0.E0));
#50=VECTOR('',#49,1.6184E1);
#51=CARTESIAN_POINT('',(2.5316E1,-2.55435E1,1.8E1));
#52=LINE('',#51,#50);
#53=DIRECTION('',(0.E0,-1.E0,0.E0));
#54=VECTOR('',#53,1.492E1);
#55=CARTESIAN_POINT('',(2.5316E1,-2.55435E1,1.8E1));
#56=LINE('',#55,#54);
#57=DIRECTION('',(1.E0,0.E0,0.E0));
#58=VECTOR('',#57,2.4004E1);
#59=CARTESIAN_POINT('',(-4.15E1,-2.55435E1,1.8E1));
#60=LINE('',#59,#58);
#61=DIRECTION('',(0.E0,-1.E0,0.E0));
#62=VECTOR('',#61,2.3E1);
#63=CARTESIAN_POINT('',(-4.15E1,-2.5435E0,1.8E1));
#64=LINE('',#63,#62);
#65=DIRECTION('',(-7.071067811865E-1,-7.071067811865E-1,0.E0));
#66=VECTOR('',#65,4.242640687119E0);
#67=CARTESIAN_POINT('',(-3.85E1,4.565E-1,1.8E1));
#68=LINE('',#67,#66);
#69=DIRECTION('',(-1.E0,0.E0,0.E0));
#70=VECTOR('',#69,7.7E1);
#71=CARTESIAN_POINT('',(3.85E1,4.565E-1,1.8E1));
#72=LINE('',#71,#70);
#73=DIRECTION('',(-7.071067811865E-1,7.071067811865E-1,0.E0));
#74=VECTOR('',#73,4.242640687119E0);
#75=CARTESIAN_POINT('',(4.15E1,-2.5435E0,1.8E1));
#76=LINE('',#75,#74);
#77=DIRECTION('',(0.E0,1.E0,0.E0));
#78=VECTOR('',#77,2.3E1);
#79=CARTESIAN_POINT('',(4.15E1,-2.55435E1,1.8E1));
#80=LINE('',#79,#78);
#81=DIRECTION('',(0.E0,-1.E0,0.E0));
#82=VECTOR('',#81,1.492E1);
#83=CARTESIAN_POINT('',(2.5316E1,-2.55435E1,0.E0));
#84=LINE('',#83,#82);
#85=DIRECTION('',(-1.E0,0.E0,0.E0));
#86=VECTOR('',#85,4.2812E1);
#87=CARTESIAN_POINT('',(2.5316E1,-4.04635E1,1.8E1));
#88=LINE('',#87,#86);
#89=DIRECTION('',(0.E0,0.E0,1.E0));
#90=VECTOR('',#89,1.8E1);
#91=CARTESIAN_POINT('',(2.5316E1,-4.04635E1,0.E0));
#92=LINE('',#91,#90);
#93=DIRECTION('',(1.E0,0.E0,0.E0));
#94=VECTOR('',#93,4.2812E1);
#95=CARTESIAN_POINT('',(-1.7496E1,-4.04635E1,0.E0));
#96=LINE('',#95,#94);
#97=DIRECTION('',(0.E0,0.E0,-1.E0));
#98=VECTOR('',#97,1.8E1);
#99=CARTESIAN_POINT('',(-1.7496E1,-4.04635E1,1.8E1));
#100=LINE('',#99,#98);
#101=DIRECTION('',(0.E0,0.E0,1.E0));
#102=VECTOR('',#101,1.8E1);
#103=CARTESIAN_POINT('',(-4.15E1,-2.5435E0,0.E0));
#104=LINE('',#103,#102);
#105=DIRECTION('',(0.E0,0.E0,1.E0));
#106=VECTOR('',#105,1.8E1);
#107=CARTESIAN_POINT('',(-3.85E1,4.565E-1,0.E0));
#108=LINE('',#107,#106);
#109=DIRECTION('',(0.E0,0.E0,1.E0));
#110=VECTOR('',#109,1.8E1);
#111=CARTESIAN_POINT('',(3.85E1,4.565E-1,0.E0));
#112=LINE('',#111,#110);
#113=CARTESIAN_POINT('',(6.5E0,4.565E-1,9.E0));
#114=DIRECTION('',(0.E0,1.E0,0.E0));
#115=DIRECTION('',(1.E0,0.E0,0.E0));
#116=AXIS2_PLACEMENT_3D('',#113,#114,#115);
#118=CARTESIAN_POINT('',(6.5E0,4.565E-1,9.E0));
#119=DIRECTION('',(0.E0,1.E0,0.E0));
#120=DIRECTION('',(-1.E0,0.E0,0.E0));
#121=AXIS2_PLACEMENT_3D('',#118,#119,#120);
#123=DIRECTION('',(0.E0,0.E0,1.E0));
#124=VECTOR('',#123,1.8E1);
#125=CARTESIAN_POINT('',(4.15E1,-2.5435E0,0.E0));
#126=LINE('',#125,#124);
#127=DIRECTION('',(0.E0,0.E0,1.E0));
#128=VECTOR('',#127,1.8E1);
#129=CARTESIAN_POINT('',(4.15E1,-2.55435E1,0.E0));
#130=LINE('',#129,#128);
#131=CARTESIAN_POINT('',(6.5E0,5.2365E0,9.E0));
#132=DIRECTION('',(0.E0,1.E0,0.E0));
#133=DIRECTION('',(1.E0,0.E0,0.E0));
#134=AXIS2_PLACEMENT_3D('',#131,#132,#133);
#136=DIRECTION('',(0.E0,1.E0,6.642013763724E-12));
#137=VECTOR('',#136,4.78E0);
#138=CARTESIAN_POINT('',(1.065E1,4.565E-1,9.E0));
#139=LINE('',#138,#137);
#140=CARTESIAN_POINT('',(1.063E1,5.2365E0,9.E0));
#141=DIRECTION('',(0.E0,0.E0,-1.E0));
#142=DIRECTION('',(-6.217248937901E-13,1.E0,0.E0));
#143=AXIS2_PLACEMENT_3D('',#140,#141,#142);
#145=CARTESIAN_POINT('',(6.5E0,5.2565E0,9.E0));
#146=DIRECTION('',(0.E0,1.E0,0.E0));
#147=DIRECTION('',(1.E0,0.E0,0.E0));
#148=AXIS2_PLACEMENT_3D('',#145,#146,#147);
#150=CARTESIAN_POINT('',(6.5E0,5.2565E0,9.E0));
#151=DIRECTION('',(0.E0,1.E0,0.E0));
#152=DIRECTION('',(-1.E0,0.E0,0.E0));
#153=AXIS2_PLACEMENT_3D('',#150,#151,#152);
#155=CARTESIAN_POINT('',(2.37E0,5.2365E0,9.E0));
#156=DIRECTION('',(0.E0,0.E0,1.E0));
#157=DIRECTION('',(5.329070518201E-13,1.E0,0.E0));
#158=AXIS2_PLACEMENT_3D('',#155,#156,#157);
#160=CARTESIAN_POINT('',(6.5E0,5.2365E0,9.E0));
#161=DIRECTION('',(0.E0,1.E0,0.E0));
#162=DIRECTION('',(-1.E0,0.E0,0.E0));
#163=AXIS2_PLACEMENT_3D('',#160,#161,#162);
#165=DIRECTION('',(0.E0,1.E0,-6.642013763724E-12));
#166=VECTOR('',#165,4.78E0);
#167=CARTESIAN_POINT('',(2.35E0,4.565E-1,9.E0));
#168=LINE('',#167,#166);
#169=CARTESIAN_POINT('',(-3.85E1,4.565E-1,0.E0));
#170=CARTESIAN_POINT('',(-4.15E1,-2.5435E0,0.E0));
#171=VERTEX_POINT('',#169);
#172=VERTEX_POINT('',#170);
#173=CARTESIAN_POINT('',(-4.15E1,-2.55435E1,0.E0));
#174=VERTEX_POINT('',#173);
#175=CARTESIAN_POINT('',(4.15E1,-2.55435E1,0.E0));
#176=CARTESIAN_POINT('',(4.15E1,-2.5435E0,0.E0));
#177=VERTEX_POINT('',#175);
#178=VERTEX_POINT('',#176);
#179=CARTESIAN_POINT('',(3.85E1,4.565E-1,0.E0));
#180=VERTEX_POINT('',#179);
#181=CARTESIAN_POINT('',(-3.85E1,4.565E-1,1.8E1));
#182=CARTESIAN_POINT('',(-4.15E1,-2.5435E0,1.8E1));
#183=VERTEX_POINT('',#181);
#184=VERTEX_POINT('',#182);
#185=CARTESIAN_POINT('',(-4.15E1,-2.55435E1,1.8E1));
#186=VERTEX_POINT('',#185);
#187=CARTESIAN_POINT('',(4.15E1,-2.55435E1,1.8E1));
#188=CARTESIAN_POINT('',(4.15E1,-2.5435E0,1.8E1));
#189=VERTEX_POINT('',#187);
#190=VERTEX_POINT('',#188);
#191=CARTESIAN_POINT('',(3.85E1,4.565E-1,1.8E1));
#192=VERTEX_POINT('',#191);
#193=CARTESIAN_POINT('',(1.065E1,4.565E-1,9.E0));
#194=CARTESIAN_POINT('',(2.35E0,4.565E-1,9.E0));
#195=VERTEX_POINT('',#193);
#196=VERTEX_POINT('',#194);
#197=CARTESIAN_POINT('',(1.063E1,5.2565E0,9.E0));
#198=CARTESIAN_POINT('',(2.37E0,5.2565E0,9.E0));
#199=VERTEX_POINT('',#197);
#200=VERTEX_POINT('',#198);
#201=CARTESIAN_POINT('',(1.065E1,5.2365E0,9.E0));
#202=CARTESIAN_POINT('',(2.35E0,5.2365E0,9.E0));
#203=VERTEX_POINT('',#201);
#204=VERTEX_POINT('',#202);
#205=CARTESIAN_POINT('',(2.5316E1,-4.04635E1,1.8E1));
#206=CARTESIAN_POINT('',(-1.7496E1,-4.04635E1,1.8E1));
#207=VERTEX_POINT('',#205);
#208=VERTEX_POINT('',#206);
#209=CARTESIAN_POINT('',(-1.7496E1,-4.04635E1,0.E0));
#210=VERTEX_POINT('',#209);
#211=CARTESIAN_POINT('',(2.5316E1,-4.04635E1,0.E0));
#212=VERTEX_POINT('',#211);
#213=CARTESIAN_POINT('',(-1.7496E1,-2.55435E1,0.E0));
#214=CARTESIAN_POINT('',(-1.7496E1,-2.55435E1,1.8E1));
#215=VERTEX_POINT('',#213);
#216=VERTEX_POINT('',#214);
#217=CARTESIAN_POINT('',(2.5316E1,-2.55435E1,0.E0));
#218=CARTESIAN_POINT('',(2.5316E1,-2.55435E1,1.8E1));
#219=VERTEX_POINT('',#217);
#220=VERTEX_POINT('',#218);
#221=CARTESIAN_POINT('',(0.E0,0.E0,0.E0));
#222=DIRECTION('',(0.E0,0.E0,1.E0));
#223=DIRECTION('',(1.E0,0.E0,0.E0));
#224=AXIS2_PLACEMENT_3D('',#221,#222,#223);
#225=PLANE('',#224);
#227=ORIENTED_EDGE('',*,*,#226,.T.);
#229=ORIENTED_EDGE('',*,*,#228,.T.);
#231=ORIENTED_EDGE('',*,*,#230,.T.);
#233=ORIENTED_EDGE('',*,*,#232,.F.);
#235=ORIENTED_EDGE('',*,*,#234,.T.);
#237=ORIENTED_EDGE('',*,*,#236,.T.);
#239=ORIENTED_EDGE('',*,*,#238,.T.);
#241=ORIENTED_EDGE('',*,*,#240,.T.);
#243=ORIENTED_EDGE('',*,*,#242,.T.);
#245=ORIENTED_EDGE('',*,*,#244,.T.);
#246=EDGE_LOOP('',(#227,#229,#231,#233,#235,#237,#239,#241,#243,#245));
#247=FACE_OUTER_BOUND('',#246,.F.);
#249=CARTESIAN_POINT('',(-4.15E1,-2.55435E1,0.E0));
#250=DIRECTION('',(0.E0,-1.E0,0.E0));
#251=DIRECTION('',(1.E0,0.E0,0.E0));
#252=AXIS2_PLACEMENT_3D('',#249,#250,#251);
#253=PLANE('',#252);
#255=ORIENTED_EDGE('',*,*,#254,.F.);
#256=ORIENTED_EDGE('',*,*,#226,.F.);
#258=ORIENTED_EDGE('',*,*,#257,.T.);
#260=ORIENTED_EDGE('',*,*,#259,.T.);
#261=EDGE_LOOP('',(#255,#256,#258,#260));
#262=FACE_OUTER_BOUND('',#261,.F.);
#264=CARTESIAN_POINT('',(-4.15E1,-2.55435E1,0.E0));
#265=DIRECTION('',(0.E0,-1.E0,0.E0));
#266=DIRECTION('',(1.E0,0.E0,0.E0));
#267=AXIS2_PLACEMENT_3D('',#264,#265,#266);
#268=PLANE('',#267);
#270=ORIENTED_EDGE('',*,*,#269,.T.);
#272=ORIENTED_EDGE('',*,*,#271,.T.);
#274=ORIENTED_EDGE('',*,*,#273,.F.);
#275=ORIENTED_EDGE('',*,*,#234,.F.);
#276=EDGE_LOOP('',(#270,#272,#274,#275));
#277=FACE_OUTER_BOUND('',#276,.F.);
#279=CARTESIAN_POINT('',(-1.7496E1,-2.55435E1,1.8E1));
#280=DIRECTION('',(-1.E0,0.E0,0.E0));
#281=DIRECTION('',(0.E0,0.E0,-1.E0));
#282=AXIS2_PLACEMENT_3D('',#279,#280,#281);
#283=PLANE('',#282);
#284=ORIENTED_EDGE('',*,*,#254,.T.);
#286=ORIENTED_EDGE('',*,*,#285,.T.);
#288=ORIENTED_EDGE('',*,*,#287,.T.);
#289=ORIENTED_EDGE('',*,*,#228,.F.);
#290=EDGE_LOOP('',(#284,#286,#288,#289));
#291=FACE_OUTER_BOUND('',#290,.F.);
#293=CARTESIAN_POINT('',(0.E0,0.E0,1.8E1));
#294=DIRECTION('',(0.E0,0.E0,1.E0));
#295=DIRECTION('',(1.E0,0.E0,0.E0));
#296=AXIS2_PLACEMENT_3D('',#293,#294,#295);
#297=PLANE('',#296);
#298=ORIENTED_EDGE('',*,*,#271,.F.);
#300=ORIENTED_EDGE('',*,*,#299,.T.);
#302=ORIENTED_EDGE('',*,*,#301,.T.);
#303=ORIENTED_EDGE('',*,*,#285,.F.);
#304=ORIENTED_EDGE('',*,*,#259,.F.);
#306=ORIENTED_EDGE('',*,*,#305,.F.);
#308=ORIENTED_EDGE('',*,*,#307,.F.);
#310=ORIENTED_EDGE('',*,*,#309,.F.);
#312=ORIENTED_EDGE('',*,*,#311,.F.);
#314=ORIENTED_EDGE('',*,*,#313,.F.);
#315=EDGE_LOOP('',(#298,#300,#302,#303,#304,#306,#308,#310,#312,#314));
#316=FACE_OUTER_BOUND('',#315,.F.);
#318=CARTESIAN_POINT('',(2.5316E1,-2.55435E1,0.E0));
#319=DIRECTION('',(1.E0,0.E0,0.E0));
#320=DIRECTION('',(0.E0,0.E0,1.E0));
#321=AXIS2_PLACEMENT_3D('',#318,#319,#320);
#322=PLANE('',#321);
#323=ORIENTED_EDGE('',*,*,#269,.F.);
#324=ORIENTED_EDGE('',*,*,#232,.T.);
#326=ORIENTED_EDGE('',*,*,#325,.T.);
#327=ORIENTED_EDGE('',*,*,#299,.F.);
#328=EDGE_LOOP('',(#323,#324,#326,#327));
#329=FACE_OUTER_BOUND('',#328,.F.);
#331=CARTESIAN_POINT('',(0.E0,-4.04635E1,0.E0));
#332=DIRECTION('',(0.E0,-1.E0,0.E0));
#333=DIRECTION('',(0.E0,0.E0,-1.E0));
#334=AXIS2_PLACEMENT_3D('',#331,#332,#333);
#335=PLANE('',#334);
#336=ORIENTED_EDGE('',*,*,#301,.F.);
#337=ORIENTED_EDGE('',*,*,#325,.F.);
#338=ORIENTED_EDGE('',*,*,#230,.F.);
#339=ORIENTED_EDGE('',*,*,#287,.F.);
#340=EDGE_LOOP('',(#336,#337,#338,#339));
#341=FACE_OUTER_BOUND('',#340,.F.);
#343=CARTESIAN_POINT('',(-4.15E1,-2.5435E0,0.E0));
#344=DIRECTION('',(-1.E0,0.E0,0.E0));
#345=DIRECTION('',(0.E0,-1.E0,0.E0));
#346=AXIS2_PLACEMENT_3D('',#343,#344,#345);
#347=PLANE('',#346);
#348=ORIENTED_EDGE('',*,*,#244,.F.);
#350=ORIENTED_EDGE('',*,*,#349,.T.);
#351=ORIENTED_EDGE('',*,*,#305,.T.);
#352=ORIENTED_EDGE('',*,*,#257,.F.);
#353=EDGE_LOOP('',(#348,#350,#351,#352));
#354=FACE_OUTER_BOUND('',#353,.F.);
#356=CARTESIAN_POINT('',(-3.85E1,4.565E-1,0.E0));
#357=DIRECTION('',(-7.071067811865E-1,7.071067811865E-1,0.E0));
#358=DIRECTION('',(-7.071067811865E-1,-7.071067811865E-1,0.E0));
#359=AXIS2_PLACEMENT_3D('',#356,#357,#358);
#360=PLANE('',#359);
#361=ORIENTED_EDGE('',*,*,#242,.F.);
#363=ORIENTED_EDGE('',*,*,#362,.T.);
#364=ORIENTED_EDGE('',*,*,#307,.T.);
#365=ORIENTED_EDGE('',*,*,#349,.F.);
#366=EDGE_LOOP('',(#361,#363,#364,#365));
#367=FACE_OUTER_BOUND('',#366,.F.);
#369=CARTESIAN_POINT('',(3.85E1,4.565E-1,0.E0));
#370=DIRECTION('',(0.E0,1.E0,0.E0));
#371=DIRECTION('',(-1.E0,0.E0,0.E0));
#372=AXIS2_PLACEMENT_3D('',#369,#370,#371);
#373=PLANE('',#372);
#374=ORIENTED_EDGE('',*,*,#240,.F.);
#376=ORIENTED_EDGE('',*,*,#375,.T.);
#377=ORIENTED_EDGE('',*,*,#309,.T.);
#378=ORIENTED_EDGE('',*,*,#362,.F.);
#379=EDGE_LOOP('',(#374,#376,#377,#378));
#380=FACE_OUTER_BOUND('',#379,.F.);
#382=ORIENTED_EDGE('',*,*,#381,.T.);
#384=ORIENTED_EDGE('',*,*,#383,.T.);
#385=EDGE_LOOP('',(#382,#384));
#386=FACE_BOUND('',#385,.F.);
#388=CARTESIAN_POINT('',(4.15E1,-2.5435E0,0.E0));
#389=DIRECTION('',(7.071067811865E-1,7.071067811865E-1,0.E0));
#390=DIRECTION('',(-7.071067811865E-1,7.071067811865E-1,0.E0));
#391=AXIS2_PLACEMENT_3D('',#388,#389,#390);
#392=PLANE('',#391);
#393=ORIENTED_EDGE('',*,*,#238,.F.);
#395=ORIENTED_EDGE('',*,*,#394,.T.);
#396=ORIENTED_EDGE('',*,*,#311,.T.);
#397=ORIENTED_EDGE('',*,*,#375,.F.);
#398=EDGE_LOOP('',(#393,#395,#396,#397));
#399=FACE_OUTER_BOUND('',#398,.F.);
#401=CARTESIAN_POINT('',(4.15E1,-2.55435E1,0.E0));
#402=DIRECTION('',(1.E0,0.E0,0.E0));
#403=DIRECTION('',(0.E0,1.E0,0.E0));
#404=AXIS2_PLACEMENT_3D('',#401,#402,#403);
#405=PLANE('',#404);
#406=ORIENTED_EDGE('',*,*,#236,.F.);
#407=ORIENTED_EDGE('',*,*,#273,.T.);
#408=ORIENTED_EDGE('',*,*,#313,.T.);
#409=ORIENTED_EDGE('',*,*,#394,.F.);
#410=EDGE_LOOP('',(#406,#407,#408,#409));
#411=FACE_OUTER_BOUND('',#410,.F.);
#413=CARTESIAN_POINT('',(6.5E0,4.565E-1,9.E0));
#414=DIRECTION('',(0.E0,1.E0,0.E0));
#415=DIRECTION('',(1.E0,0.E0,0.E0));
#416=AXIS2_PLACEMENT_3D('',#413,#414,#415);
#417=CYLINDRICAL_SURFACE('',#416,4.15E0);
#419=ORIENTED_EDGE('',*,*,#418,.T.);
#421=ORIENTED_EDGE('',*,*,#420,.F.);
#422=ORIENTED_EDGE('',*,*,#381,.F.);
#424=ORIENTED_EDGE('',*,*,#423,.T.);
#425=EDGE_LOOP('',(#419,#421,#422,#424));
#426=FACE_OUTER_BOUND('',#425,.F.);
#428=CARTESIAN_POINT('',(6.5E0,5.2365E0,9.E0));
#429=DIRECTION('',(0.E0,1.E0,0.E0));
#430=DIRECTION('',(9.998942115176E-1,0.E0,1.454530074176E-2));
#431=AXIS2_PLACEMENT_3D('',#428,#429,#430);
#432=TOROIDAL_SURFACE('',#431,4.13E0,2.E-2);
#434=ORIENTED_EDGE('',*,*,#433,.T.);
#436=ORIENTED_EDGE('',*,*,#435,.T.);
#437=ORIENTED_EDGE('',*,*,#418,.F.);
#439=ORIENTED_EDGE('',*,*,#438,.F.);
#440=EDGE_LOOP('',(#434,#436,#437,#439));
#441=FACE_OUTER_BOUND('',#440,.F.);
#443=CARTESIAN_POINT('',(0.E0,5.2565E0,0.E0));
#444=DIRECTION('',(0.E0,1.E0,0.E0));
#445=DIRECTION('',(1.E0,0.E0,0.E0));
#446=AXIS2_PLACEMENT_3D('',#443,#444,#445);
#447=PLANE('',#446);
#448=ORIENTED_EDGE('',*,*,#433,.F.);
#450=ORIENTED_EDGE('',*,*,#449,.F.);
#451=EDGE_LOOP('',(#448,#450));
#452=FACE_OUTER_BOUND('',#451,.F.);
#454=CARTESIAN_POINT('',(6.5E0,5.2365E0,9.E0));
#455=DIRECTION('',(0.E0,1.E0,0.E0));
#456=DIRECTION('',(-9.998942115176E-1,0.E0,-1.454530074176E-2));
#457=AXIS2_PLACEMENT_3D('',#454,#455,#456);
#458=TOROIDAL_SURFACE('',#457,4.13E0,2.E-2);
#459=ORIENTED_EDGE('',*,*,#449,.T.);
#460=ORIENTED_EDGE('',*,*,#438,.T.);
#462=ORIENTED_EDGE('',*,*,#461,.F.);
#463=ORIENTED_EDGE('',*,*,#435,.F.);
#464=EDGE_LOOP('',(#459,#460,#462,#463));
#465=FACE_OUTER_BOUND('',#464,.F.);
#467=CARTESIAN_POINT('',(6.5E0,4.565E-1,9.E0));
#468=DIRECTION('',(0.E0,1.E0,0.E0));
#469=DIRECTION('',(1.E0,0.E0,0.E0));
#470=AXIS2_PLACEMENT_3D('',#467,#468,#469);
#471=CYLINDRICAL_SURFACE('',#470,4.15E0);
#472=ORIENTED_EDGE('',*,*,#461,.T.);
#473=ORIENTED_EDGE('',*,*,#423,.F.);
#474=ORIENTED_EDGE('',*,*,#383,.F.);
#475=ORIENTED_EDGE('',*,*,#420,.T.);
#476=EDGE_LOOP('',(#472,#473,#474,#475));
#477=FACE_OUTER_BOUND('',#476,.F.);
#479=CLOSED_SHELL('',(#248,#263,#278,#292,#317,#330,#342,#355,#368,#387,#400,
#412,#427,#442,#453,#466,#478));
#480=MANIFOLD_SOLID_BREP('',#479);
#482=DIMENSIONAL_EXPONENTS(0.E0,0.E0,0.E0,0.E0,0.E0,0.E0,0.E0);
#484=PLANE_ANGLE_MEASURE_WITH_UNIT(PLANE_ANGLE_MEASURE(1.745329251994E-2),#483);
#485=(CONVERSION_BASED_UNIT('DEGREE',#484)NAMED_UNIT(*)PLANE_ANGLE_UNIT());
#487=UNCERTAINTY_MEASURE_WITH_UNIT(LENGTH_MEASURE(4.018743876229E-3),#481,
'closure',
'Maximum model space distance between geometric entities at asserted connectivities');
#490=APPLICATION_CONTEXT(
'CONFIGURATION CONTROLLED 3D DESIGNS OF MECHANICAL PARTS AND ASSEMBLIES');
#491=APPLICATION_PROTOCOL_DEFINITION('international standard',
'config_control_design',1994,#490);
#492=DESIGN_CONTEXT('',#490,'design');
#493=MECHANICAL_CONTEXT('',#490,'mechanical');
#494=PRODUCT('1830_SERIES','1830_SERIES','NOT SPECIFIED',(#493));
#495=PRODUCT_DEFINITION_FORMATION_WITH_SPECIFIED_SOURCE('2','LAST_VERSION',#494,
.MADE.);
#499=PRODUCT_CATEGORY('part','');
#500=PRODUCT_RELATED_PRODUCT_CATEGORY('detail','',(#494));
#501=PRODUCT_CATEGORY_RELATIONSHIP('','',#499,#500);
#502=SECURITY_CLASSIFICATION_LEVEL('unclassified');
#503=SECURITY_CLASSIFICATION('','',#502);
#504=CC_DESIGN_SECURITY_CLASSIFICATION(#503,(#495));
#505=APPROVAL_STATUS('approved');
#506=APPROVAL(#505,'');
#507=CC_DESIGN_APPROVAL(#506,(#503,#495,#496));
#508=CALENDAR_DATE(112,24,8);
#509=COORDINATED_UNIVERSAL_TIME_OFFSET(7,0,.BEHIND.);
#510=LOCAL_TIME(13,26,9.E0,#509);
#511=DATE_AND_TIME(#508,#510);
#512=APPROVAL_DATE_TIME(#511,#506);
#513=DATE_TIME_ROLE('creation_date');
#514=CC_DESIGN_DATE_AND_TIME_ASSIGNMENT(#511,#513,(#496));
#515=DATE_TIME_ROLE('classification_date');
#516=CC_DESIGN_DATE_AND_TIME_ASSIGNMENT(#511,#515,(#503));
#517=PERSON('UNSPECIFIED','UNSPECIFIED',$,$,$,$);
#518=ORGANIZATION('UNSPECIFIED','UNSPECIFIED','UNSPECIFIED');
#519=PERSON_AND_ORGANIZATION(#517,#518);
#520=APPROVAL_ROLE('approver');
#521=APPROVAL_PERSON_ORGANIZATION(#519,#506,#520);
#522=PERSON_AND_ORGANIZATION_ROLE('creator');
#523=CC_DESIGN_PERSON_AND_ORGANIZATION_ASSIGNMENT(#519,#522,(#495,#496));
#524=PERSON_AND_ORGANIZATION_ROLE('design_supplier');
#525=CC_DESIGN_PERSON_AND_ORGANIZATION_ASSIGNMENT(#519,#524,(#495));
#526=PERSON_AND_ORGANIZATION_ROLE('classification_officer');
#527=CC_DESIGN_PERSON_AND_ORGANIZATION_ASSIGNMENT(#519,#526,(#503));
#528=PERSON_AND_ORGANIZATION_ROLE('design_owner');
#529=CC_DESIGN_PERSON_AND_ORGANIZATION_ASSIGNMENT(#519,#528,(#494));
#117=CIRCLE('',#116,4.15E0);
#122=CIRCLE('',#121,4.15E0);
#135=CIRCLE('',#134,4.15E0);
#144=CIRCLE('',#143,2.E-2);
#149=CIRCLE('',#148,4.13E0);
#154=CIRCLE('',#153,4.13E0);
#159=CIRCLE('',#158,2.E-2);
#164=CIRCLE('',#163,4.15E0);
#226=EDGE_CURVE('',#174,#215,#4,.T.);
#228=EDGE_CURVE('',#215,#210,#8,.T.);
#230=EDGE_CURVE('',#210,#212,#96,.T.);
#232=EDGE_CURVE('',#219,#212,#84,.T.);
#234=EDGE_CURVE('',#219,#177,#12,.T.);
#236=EDGE_CURVE('',#177,#178,#16,.T.);
#238=EDGE_CURVE('',#178,#180,#20,.T.);
#240=EDGE_CURVE('',#180,#171,#24,.T.);
#242=EDGE_CURVE('',#171,#172,#28,.T.);
#244=EDGE_CURVE('',#172,#174,#32,.T.);
#248=ADVANCED_FACE('',(#247),#225,.F.);
#254=EDGE_CURVE('',#215,#216,#36,.T.);
#257=EDGE_CURVE('',#174,#186,#40,.T.);
#259=EDGE_CURVE('',#186,#216,#60,.T.);
#263=ADVANCED_FACE('',(#262),#253,.T.);
#269=EDGE_CURVE('',#219,#220,#44,.T.);
#271=EDGE_CURVE('',#220,#189,#52,.T.);
#273=EDGE_CURVE('',#177,#189,#130,.T.);
#278=ADVANCED_FACE('',(#277),#268,.T.);
#285=EDGE_CURVE('',#216,#208,#48,.T.);
#287=EDGE_CURVE('',#208,#210,#100,.T.);
#292=ADVANCED_FACE('',(#291),#283,.T.);
#299=EDGE_CURVE('',#220,#207,#56,.T.);
#301=EDGE_CURVE('',#207,#208,#88,.T.);
#305=EDGE_CURVE('',#184,#186,#64,.T.);
#307=EDGE_CURVE('',#183,#184,#68,.T.);
#309=EDGE_CURVE('',#192,#183,#72,.T.);
#311=EDGE_CURVE('',#190,#192,#76,.T.);
#313=EDGE_CURVE('',#189,#190,#80,.T.);
#317=ADVANCED_FACE('',(#316),#297,.T.);
#325=EDGE_CURVE('',#212,#207,#92,.T.);
#330=ADVANCED_FACE('',(#329),#322,.T.);
#342=ADVANCED_FACE('',(#341),#335,.T.);
#349=EDGE_CURVE('',#172,#184,#104,.T.);
#355=ADVANCED_FACE('',(#354),#347,.T.);
#362=EDGE_CURVE('',#171,#183,#108,.T.);
#368=ADVANCED_FACE('',(#367),#360,.T.);
#375=EDGE_CURVE('',#180,#192,#112,.T.);
#381=EDGE_CURVE('',#195,#196,#117,.T.);
#383=EDGE_CURVE('',#196,#195,#122,.T.);
#387=ADVANCED_FACE('',(#380,#386),#373,.T.);
#394=EDGE_CURVE('',#178,#190,#126,.T.);
#400=ADVANCED_FACE('',(#399),#392,.T.);
#412=ADVANCED_FACE('',(#411),#405,.T.);
#418=EDGE_CURVE('',#203,#204,#135,.T.);
#420=EDGE_CURVE('',#196,#204,#168,.T.);
#423=EDGE_CURVE('',#195,#203,#139,.T.);
#427=ADVANCED_FACE('',(#426),#417,.T.);
#433=EDGE_CURVE('',#199,#200,#149,.T.);
#435=EDGE_CURVE('',#200,#204,#159,.T.);
#438=EDGE_CURVE('',#199,#203,#144,.T.);
#442=ADVANCED_FACE('',(#441),#432,.T.);
#449=EDGE_CURVE('',#200,#199,#154,.T.);
#453=ADVANCED_FACE('',(#452),#447,.T.);
#461=EDGE_CURVE('',#204,#203,#164,.T.);
#466=ADVANCED_FACE('',(#465),#458,.T.);
#478=ADVANCED_FACE('',(#477),#471,.T.);
#481=(LENGTH_UNIT()NAMED_UNIT(*)SI_UNIT(.MILLI.,.METRE.));
#483=(NAMED_UNIT(*)PLANE_ANGLE_UNIT()SI_UNIT($,.RADIAN.));
#486=(NAMED_UNIT(*)SI_UNIT($,.STERADIAN.)SOLID_ANGLE_UNIT());
#488=(GEOMETRIC_REPRESENTATION_CONTEXT(3)GLOBAL_UNCERTAINTY_ASSIGNED_CONTEXT((
#487))GLOBAL_UNIT_ASSIGNED_CONTEXT((#481,#485,#486))REPRESENTATION_CONTEXT
('ID1','3'));
#489=ADVANCED_BREP_SHAPE_REPRESENTATION('',(#480),#488);
#496=PRODUCT_DEFINITION('design','',#495,#492);
#497=PRODUCT_DEFINITION_SHAPE('','SHAPE FOR 1830_SERIES.',#496);
#498=SHAPE_DEFINITION_REPRESENTATION(#497,#489);
ENDSEC;
END-ISO-10303-21;
