ISO-10303-21;
HEADER;
FILE_DESCRIPTION((''),'2;1');
FILE_NAME('2035-XX-SM','2012-08-03T',('ryans'),('Bourns, Inc.'),
'PRO/ENGINEER BY PARAMETRIC TECHNOLOGY CORPORATION, 2010100',
'PRO/ENGINEER BY PARAMETRIC TECHNOLOGY CORPORATION, 2010100','');
FILE_SCHEMA(('CONFIG_CONTROL_DESIGN'));
ENDSEC;
DATA;
#1=CARTESIAN_POINT('',(0.E0,0.E0,3.99E0));
#2=DIRECTION('',(0.E0,0.E0,1.E0));
#3=DIRECTION('',(1.E0,0.E0,0.E0));
#4=AXIS2_PLACEMENT_3D('',#1,#2,#3);
#6=DIRECTION('',(0.E0,0.E0,1.E0));
#7=VECTOR('',#6,3.59E0);
#8=CARTESIAN_POINT('',(2.4E0,0.E0,4.E-1));
#9=LINE('',#8,#7);
#10=CARTESIAN_POINT('',(0.E0,0.E0,3.99E0));
#11=DIRECTION('',(0.E0,0.E0,1.E0));
#12=DIRECTION('',(-1.E0,0.E0,0.E0));
#13=AXIS2_PLACEMENT_3D('',#10,#11,#12);
#15=DIRECTION('',(0.E0,0.E0,1.E0));
#16=VECTOR('',#15,3.59E0);
#17=CARTESIAN_POINT('',(-2.4E0,0.E0,4.E-1));
#18=LINE('',#17,#16);
#19=DIRECTION('',(-1.E0,0.E0,0.E0));
#20=VECTOR('',#19,3.776270170652E0);
#21=CARTESIAN_POINT('',(1.888135085326E0,2.5E0,4.E-1));
#22=LINE('',#21,#20);
#23=DIRECTION('',(-7.071067811865E-1,7.071067811865E-1,0.E0));
#24=VECTOR('',#23,8.654987001723E-1);
#25=CARTESIAN_POINT('',(2.500135085326E0,1.888E0,4.E-1));
#26=LINE('',#25,#24);
#27=DIRECTION('',(0.E0,1.E0,0.E0));
#28=VECTOR('',#27,3.776E0);
#29=CARTESIAN_POINT('',(2.500135085326E0,-1.888E0,4.E-1));
#30=LINE('',#29,#28);
#31=DIRECTION('',(7.071067811865E-1,7.071067811865E-1,0.E0));
#32=VECTOR('',#31,8.654987001723E-1);
#33=CARTESIAN_POINT('',(1.888135085326E0,-2.5E0,4.E-1));
#34=LINE('',#33,#32);
#35=DIRECTION('',(1.E0,0.E0,0.E0));
#36=VECTOR('',#35,3.776270170652E0);
#37=CARTESIAN_POINT('',(-1.888135085326E0,-2.5E0,4.E-1));
#38=LINE('',#37,#36);
#39=DIRECTION('',(7.071067811865E-1,-7.071067811865E-1,0.E0));
#40=VECTOR('',#39,8.654987001723E-1);
#41=CARTESIAN_POINT('',(-2.500135085326E0,-1.888E0,4.E-1));
#42=LINE('',#41,#40);
#43=DIRECTION('',(0.E0,-1.E0,0.E0));
#44=VECTOR('',#43,3.776E0);
#45=CARTESIAN_POINT('',(-2.500135085326E0,1.888E0,4.E-1));
#46=LINE('',#45,#44);
#47=DIRECTION('',(-7.071067811865E-1,-7.071067811865E-1,0.E0));
#48=VECTOR('',#47,8.654987001723E-1);
#49=CARTESIAN_POINT('',(-1.888135085326E0,2.5E0,4.E-1));
#50=LINE('',#49,#48);
#51=CARTESIAN_POINT('',(0.E0,0.E0,4.E-1));
#52=DIRECTION('',(0.E0,0.E0,1.E0));
#53=DIRECTION('',(1.E0,0.E0,0.E0));
#54=AXIS2_PLACEMENT_3D('',#51,#52,#53);
#56=CARTESIAN_POINT('',(0.E0,0.E0,4.E-1));
#57=DIRECTION('',(0.E0,0.E0,1.E0));
#58=DIRECTION('',(-1.E0,0.E0,0.E0));
#59=AXIS2_PLACEMENT_3D('',#56,#57,#58);
#61=DIRECTION('',(0.E0,0.E0,1.E0));
#62=VECTOR('',#61,4.E-1);
#63=CARTESIAN_POINT('',(1.888135085326E0,2.5E0,0.E0));
#64=LINE('',#63,#62);
#65=DIRECTION('',(-1.E0,0.E0,0.E0));
#66=VECTOR('',#65,3.776270170652E0);
#67=CARTESIAN_POINT('',(1.888135085326E0,2.5E0,0.E0));
#68=LINE('',#67,#66);
#69=DIRECTION('',(-7.071067811865E-1,-7.071067811865E-1,0.E0));
#70=VECTOR('',#69,8.654987001723E-1);
#71=CARTESIAN_POINT('',(-1.888135085326E0,2.5E0,0.E0));
#72=LINE('',#71,#70);
#73=DIRECTION('',(0.E0,-1.E0,0.E0));
#74=VECTOR('',#73,3.776E0);
#75=CARTESIAN_POINT('',(-2.500135085326E0,1.888E0,0.E0));
#76=LINE('',#75,#74);
#77=DIRECTION('',(7.071067811865E-1,-7.071067811865E-1,0.E0));
#78=VECTOR('',#77,8.654987001723E-1);
#79=CARTESIAN_POINT('',(-2.500135085326E0,-1.888E0,0.E0));
#80=LINE('',#79,#78);
#81=DIRECTION('',(1.E0,0.E0,0.E0));
#82=VECTOR('',#81,3.776270170652E0);
#83=CARTESIAN_POINT('',(-1.888135085326E0,-2.5E0,0.E0));
#84=LINE('',#83,#82);
#85=DIRECTION('',(7.071067811865E-1,7.071067811865E-1,0.E0));
#86=VECTOR('',#85,8.654987001723E-1);
#87=CARTESIAN_POINT('',(1.888135085326E0,-2.5E0,0.E0));
#88=LINE('',#87,#86);
#89=DIRECTION('',(0.E0,1.E0,0.E0));
#90=VECTOR('',#89,3.776E0);
#91=CARTESIAN_POINT('',(2.500135085326E0,-1.888E0,0.E0));
#92=LINE('',#91,#90);
#93=DIRECTION('',(-7.071067811865E-1,7.071067811865E-1,0.E0));
#94=VECTOR('',#93,8.654987001723E-1);
#95=CARTESIAN_POINT('',(2.500135085326E0,1.888E0,0.E0));
#96=LINE('',#95,#94);
#97=DIRECTION('',(0.E0,0.E0,1.E0));
#98=VECTOR('',#97,4.E-1);
#99=CARTESIAN_POINT('',(-1.888135085326E0,2.5E0,0.E0));
#100=LINE('',#99,#98);
#101=DIRECTION('',(0.E0,0.E0,1.E0));
#102=VECTOR('',#101,4.E-1);
#103=CARTESIAN_POINT('',(-2.500135085326E0,1.888E0,0.E0));
#104=LINE('',#103,#102);
#105=DIRECTION('',(0.E0,0.E0,1.E0));
#106=VECTOR('',#105,4.E-1);
#107=CARTESIAN_POINT('',(-2.500135085326E0,-1.888E0,0.E0));
#108=LINE('',#107,#106);
#109=DIRECTION('',(0.E0,0.E0,1.E0));
#110=VECTOR('',#109,4.E-1);
#111=CARTESIAN_POINT('',(-1.888135085326E0,-2.5E0,0.E0));
#112=LINE('',#111,#110);
#113=DIRECTION('',(0.E0,0.E0,1.E0));
#114=VECTOR('',#113,4.E-1);
#115=CARTESIAN_POINT('',(1.888135085326E0,-2.5E0,0.E0));
#116=LINE('',#115,#114);
#117=DIRECTION('',(0.E0,0.E0,1.E0));
#118=VECTOR('',#117,4.E-1);
#119=CARTESIAN_POINT('',(2.500135085326E0,-1.888E0,0.E0));
#120=LINE('',#119,#118);
#121=DIRECTION('',(0.E0,0.E0,1.E0));
#122=VECTOR('',#121,4.E-1);
#123=CARTESIAN_POINT('',(2.500135085326E0,1.888E0,0.E0));
#124=LINE('',#123,#122);
#125=CARTESIAN_POINT('',(1.888135085326E0,2.5E0,0.E0));
#126=CARTESIAN_POINT('',(-1.888135085326E0,2.5E0,0.E0));
#127=VERTEX_POINT('',#125);
#128=VERTEX_POINT('',#126);
#129=CARTESIAN_POINT('',(-2.500135085326E0,1.888E0,0.E0));
#130=VERTEX_POINT('',#129);
#131=CARTESIAN_POINT('',(-2.500135085326E0,-1.888E0,0.E0));
#132=VERTEX_POINT('',#131);
#133=CARTESIAN_POINT('',(-1.888135085326E0,-2.5E0,0.E0));
#134=VERTEX_POINT('',#133);
#135=CARTESIAN_POINT('',(1.888135085326E0,-2.5E0,0.E0));
#136=VERTEX_POINT('',#135);
#137=CARTESIAN_POINT('',(2.500135085326E0,-1.888E0,0.E0));
#138=VERTEX_POINT('',#137);
#139=CARTESIAN_POINT('',(2.500135085326E0,1.888E0,0.E0));
#140=VERTEX_POINT('',#139);
#141=CARTESIAN_POINT('',(1.888135085326E0,2.5E0,4.E-1));
#142=CARTESIAN_POINT('',(-1.888135085326E0,2.5E0,4.E-1));
#143=VERTEX_POINT('',#141);
#144=VERTEX_POINT('',#142);
#145=CARTESIAN_POINT('',(-2.500135085326E0,1.888E0,4.E-1));
#146=VERTEX_POINT('',#145);
#147=CARTESIAN_POINT('',(-2.500135085326E0,-1.888E0,4.E-1));
#148=VERTEX_POINT('',#147);
#149=CARTESIAN_POINT('',(-1.888135085326E0,-2.5E0,4.E-1));
#150=VERTEX_POINT('',#149);
#151=CARTESIAN_POINT('',(1.888135085326E0,-2.5E0,4.E-1));
#152=VERTEX_POINT('',#151);
#153=CARTESIAN_POINT('',(2.500135085326E0,-1.888E0,4.E-1));
#154=VERTEX_POINT('',#153);
#155=CARTESIAN_POINT('',(2.500135085326E0,1.888E0,4.E-1));
#156=VERTEX_POINT('',#155);
#157=CARTESIAN_POINT('',(2.4E0,0.E0,4.E-1));
#158=CARTESIAN_POINT('',(-2.4E0,0.E0,4.E-1));
#159=VERTEX_POINT('',#157);
#160=VERTEX_POINT('',#158);
#161=CARTESIAN_POINT('',(2.4E0,0.E0,3.99E0));
#162=CARTESIAN_POINT('',(-2.4E0,0.E0,3.99E0));
#163=VERTEX_POINT('',#161);
#164=VERTEX_POINT('',#162);
#165=CARTESIAN_POINT('',(-3.000162102391E0,-2.4E0,3.99E0));
#166=DIRECTION('',(0.E0,0.E0,-1.E0));
#167=DIRECTION('',(0.E0,1.E0,0.E0));
#168=AXIS2_PLACEMENT_3D('',#165,#166,#167);
#169=PLANE('',#168);
#171=ORIENTED_EDGE('',*,*,#170,.F.);
#173=ORIENTED_EDGE('',*,*,#172,.F.);
#174=EDGE_LOOP('',(#171,#173));
#175=FACE_OUTER_BOUND('',#174,.F.);
#177=CARTESIAN_POINT('',(0.E0,0.E0,0.E0));
#178=DIRECTION('',(0.E0,0.E0,1.E0));
#179=DIRECTION('',(1.E0,0.E0,0.E0));
#180=AXIS2_PLACEMENT_3D('',#177,#178,#179);
#181=CYLINDRICAL_SURFACE('',#180,2.4E0);
#182=ORIENTED_EDGE('',*,*,#170,.T.);
#184=ORIENTED_EDGE('',*,*,#183,.F.);
#186=ORIENTED_EDGE('',*,*,#185,.F.);
#188=ORIENTED_EDGE('',*,*,#187,.T.);
#189=EDGE_LOOP('',(#182,#184,#186,#188));
#190=FACE_OUTER_BOUND('',#189,.F.);
#192=CARTESIAN_POINT('',(0.E0,0.E0,0.E0));
#193=DIRECTION('',(0.E0,0.E0,1.E0));
#194=DIRECTION('',(1.E0,0.E0,0.E0));
#195=AXIS2_PLACEMENT_3D('',#192,#193,#194);
#196=CYLINDRICAL_SURFACE('',#195,2.4E0);
#197=ORIENTED_EDGE('',*,*,#172,.T.);
#198=ORIENTED_EDGE('',*,*,#187,.F.);
#200=ORIENTED_EDGE('',*,*,#199,.F.);
#201=ORIENTED_EDGE('',*,*,#183,.T.);
#202=EDGE_LOOP('',(#197,#198,#200,#201));
#203=FACE_OUTER_BOUND('',#202,.F.);
#205=CARTESIAN_POINT('',(0.E0,0.E0,4.E-1));
#206=DIRECTION('',(0.E0,0.E0,1.E0));
#207=DIRECTION('',(1.E0,0.E0,0.E0));
#208=AXIS2_PLACEMENT_3D('',#205,#206,#207);
#209=PLANE('',#208);
#211=ORIENTED_EDGE('',*,*,#210,.F.);
#213=ORIENTED_EDGE('',*,*,#212,.F.);
#215=ORIENTED_EDGE('',*,*,#214,.F.);
#217=ORIENTED_EDGE('',*,*,#216,.F.);
#219=ORIENTED_EDGE('',*,*,#218,.F.);
#221=ORIENTED_EDGE('',*,*,#220,.F.);
#223=ORIENTED_EDGE('',*,*,#222,.F.);
#225=ORIENTED_EDGE('',*,*,#224,.F.);
#226=EDGE_LOOP('',(#211,#213,#215,#217,#219,#221,#223,#225));
#227=FACE_OUTER_BOUND('',#226,.F.);
#228=ORIENTED_EDGE('',*,*,#185,.T.);
#229=ORIENTED_EDGE('',*,*,#199,.T.);
#230=EDGE_LOOP('',(#228,#229));
#231=FACE_BOUND('',#230,.F.);
#233=CARTESIAN_POINT('',(1.888135085326E0,2.5E0,0.E0));
#234=DIRECTION('',(0.E0,1.E0,0.E0));
#235=DIRECTION('',(-1.E0,0.E0,0.E0));
#236=AXIS2_PLACEMENT_3D('',#233,#234,#235);
#237=PLANE('',#236);
#239=ORIENTED_EDGE('',*,*,#238,.F.);
#241=ORIENTED_EDGE('',*,*,#240,.T.);
#242=ORIENTED_EDGE('',*,*,#210,.T.);
#244=ORIENTED_EDGE('',*,*,#243,.F.);
#245=EDGE_LOOP('',(#239,#241,#242,#244));
#246=FACE_OUTER_BOUND('',#245,.F.);
#248=CARTESIAN_POINT('',(0.E0,0.E0,0.E0));
#249=DIRECTION('',(0.E0,0.E0,1.E0));
#250=DIRECTION('',(1.E0,0.E0,0.E0));
#251=AXIS2_PLACEMENT_3D('',#248,#249,#250);
#252=PLANE('',#251);
#253=ORIENTED_EDGE('',*,*,#238,.T.);
#255=ORIENTED_EDGE('',*,*,#254,.T.);
#257=ORIENTED_EDGE('',*,*,#256,.T.);
#259=ORIENTED_EDGE('',*,*,#258,.T.);
#261=ORIENTED_EDGE('',*,*,#260,.T.);
#263=ORIENTED_EDGE('',*,*,#262,.T.);
#265=ORIENTED_EDGE('',*,*,#264,.T.);
#267=ORIENTED_EDGE('',*,*,#266,.T.);
#268=EDGE_LOOP('',(#253,#255,#257,#259,#261,#263,#265,#267));
#269=FACE_OUTER_BOUND('',#268,.F.);
#271=CARTESIAN_POINT('',(-1.888135085326E0,2.5E0,0.E0));
#272=DIRECTION('',(-7.071067811865E-1,7.071067811865E-1,0.E0));
#273=DIRECTION('',(-7.071067811865E-1,-7.071067811865E-1,0.E0));
#274=AXIS2_PLACEMENT_3D('',#271,#272,#273);
#275=PLANE('',#274);
#276=ORIENTED_EDGE('',*,*,#254,.F.);
#277=ORIENTED_EDGE('',*,*,#243,.T.);
#278=ORIENTED_EDGE('',*,*,#224,.T.);
#280=ORIENTED_EDGE('',*,*,#279,.F.);
#281=EDGE_LOOP('',(#276,#277,#278,#280));
#282=FACE_OUTER_BOUND('',#281,.F.);
#284=CARTESIAN_POINT('',(-2.500135085326E0,1.888E0,0.E0));
#285=DIRECTION('',(-1.E0,0.E0,0.E0));
#286=DIRECTION('',(0.E0,-1.E0,0.E0));
#287=AXIS2_PLACEMENT_3D('',#284,#285,#286);
#288=PLANE('',#287);
#289=ORIENTED_EDGE('',*,*,#256,.F.);
#290=ORIENTED_EDGE('',*,*,#279,.T.);
#291=ORIENTED_EDGE('',*,*,#222,.T.);
#293=ORIENTED_EDGE('',*,*,#292,.F.);
#294=EDGE_LOOP('',(#289,#290,#291,#293));
#295=FACE_OUTER_BOUND('',#294,.F.);
#297=CARTESIAN_POINT('',(-2.500135085326E0,-1.888E0,0.E0));
#298=DIRECTION('',(-7.071067811865E-1,-7.071067811865E-1,0.E0));
#299=DIRECTION('',(7.071067811865E-1,-7.071067811865E-1,0.E0));
#300=AXIS2_PLACEMENT_3D('',#297,#298,#299);
#301=PLANE('',#300);
#302=ORIENTED_EDGE('',*,*,#258,.F.);
#303=ORIENTED_EDGE('',*,*,#292,.T.);
#304=ORIENTED_EDGE('',*,*,#220,.T.);
#306=ORIENTED_EDGE('',*,*,#305,.F.);
#307=EDGE_LOOP('',(#302,#303,#304,#306));
#308=FACE_OUTER_BOUND('',#307,.F.);
#310=CARTESIAN_POINT('',(-1.888135085326E0,-2.5E0,0.E0));
#311=DIRECTION('',(0.E0,-1.E0,0.E0));
#312=DIRECTION('',(1.E0,0.E0,0.E0));
#313=AXIS2_PLACEMENT_3D('',#310,#311,#312);
#314=PLANE('',#313);
#315=ORIENTED_EDGE('',*,*,#260,.F.);
#316=ORIENTED_EDGE('',*,*,#305,.T.);
#317=ORIENTED_EDGE('',*,*,#218,.T.);
#319=ORIENTED_EDGE('',*,*,#318,.F.);
#320=EDGE_LOOP('',(#315,#316,#317,#319));
#321=FACE_OUTER_BOUND('',#320,.F.);
#323=CARTESIAN_POINT('',(1.888135085326E0,-2.5E0,0.E0));
#324=DIRECTION('',(7.071067811865E-1,-7.071067811865E-1,0.E0));
#325=DIRECTION('',(7.071067811865E-1,7.071067811865E-1,0.E0));
#326=AXIS2_PLACEMENT_3D('',#323,#324,#325);
#327=PLANE('',#326);
#328=ORIENTED_EDGE('',*,*,#262,.F.);
#329=ORIENTED_EDGE('',*,*,#318,.T.);
#330=ORIENTED_EDGE('',*,*,#216,.T.);
#332=ORIENTED_EDGE('',*,*,#331,.F.);
#333=EDGE_LOOP('',(#328,#329,#330,#332));
#334=FACE_OUTER_BOUND('',#333,.F.);
#336=CARTESIAN_POINT('',(2.500135085326E0,-1.888E0,0.E0));
#337=DIRECTION('',(1.E0,0.E0,0.E0));
#338=DIRECTION('',(0.E0,1.E0,0.E0));
#339=AXIS2_PLACEMENT_3D('',#336,#337,#338);
#340=PLANE('',#339);
#341=ORIENTED_EDGE('',*,*,#264,.F.);
#342=ORIENTED_EDGE('',*,*,#331,.T.);
#343=ORIENTED_EDGE('',*,*,#214,.T.);
#345=ORIENTED_EDGE('',*,*,#344,.F.);
#346=EDGE_LOOP('',(#341,#342,#343,#345));
#347=FACE_OUTER_BOUND('',#346,.F.);
#349=CARTESIAN_POINT('',(2.500135085326E0,1.888E0,0.E0));
#350=DIRECTION('',(7.071067811865E-1,7.071067811865E-1,0.E0));
#351=DIRECTION('',(-7.071067811865E-1,7.071067811865E-1,0.E0));
#352=AXIS2_PLACEMENT_3D('',#349,#350,#351);
#353=PLANE('',#352);
#354=ORIENTED_EDGE('',*,*,#266,.F.);
#355=ORIENTED_EDGE('',*,*,#344,.T.);
#356=ORIENTED_EDGE('',*,*,#212,.T.);
#357=ORIENTED_EDGE('',*,*,#240,.F.);
#358=EDGE_LOOP('',(#354,#355,#356,#357));
#359=FACE_OUTER_BOUND('',#358,.F.);
#361=CLOSED_SHELL('',(#176,#191,#204,#232,#247,#270,#283,#296,#309,#322,#335,
#348,#360));
#362=MANIFOLD_SOLID_BREP('',#361);
#363=CARTESIAN_POINT('',(0.E0,0.E0,4.4E0));
#364=DIRECTION('',(0.E0,0.E0,1.E0));
#365=DIRECTION('',(1.E0,0.E0,0.E0));
#366=AXIS2_PLACEMENT_3D('',#363,#364,#365);
#368=CARTESIAN_POINT('',(0.E0,0.E0,4.4E0));
#369=DIRECTION('',(0.E0,0.E0,1.E0));
#370=DIRECTION('',(-1.E0,0.E0,0.E0));
#371=AXIS2_PLACEMENT_3D('',#368,#369,#370);
#373=CARTESIAN_POINT('',(0.E0,0.E0,4.E0));
#374=DIRECTION('',(0.E0,0.E0,-1.E0));
#375=DIRECTION('',(-1.E0,0.E0,0.E0));
#376=AXIS2_PLACEMENT_3D('',#373,#374,#375);
#378=DIRECTION('',(0.E0,0.E0,1.E0));
#379=VECTOR('',#378,4.E-1);
#380=CARTESIAN_POINT('',(2.4E0,0.E0,4.E0));
#381=LINE('',#380,#379);
#382=CARTESIAN_POINT('',(0.E0,0.E0,4.E0));
#383=DIRECTION('',(0.E0,0.E0,-1.E0));
#384=DIRECTION('',(1.E0,0.E0,0.E0));
#385=AXIS2_PLACEMENT_3D('',#382,#383,#384);
#387=DIRECTION('',(0.E0,0.E0,1.E0));
#388=VECTOR('',#387,4.E-1);
#389=CARTESIAN_POINT('',(-2.4E0,0.E0,4.E0));
#390=LINE('',#389,#388);
#391=CARTESIAN_POINT('',(2.4E0,0.E0,4.4E0));
#392=CARTESIAN_POINT('',(-2.4E0,0.E0,4.4E0));
#393=VERTEX_POINT('',#391);
#394=VERTEX_POINT('',#392);
#395=CARTESIAN_POINT('',(-2.4E0,0.E0,4.E0));
#396=CARTESIAN_POINT('',(2.4E0,0.E0,4.E0));
#397=VERTEX_POINT('',#395);
#398=VERTEX_POINT('',#396);
#399=CARTESIAN_POINT('',(0.E0,0.E0,4.4E0));
#400=DIRECTION('',(0.E0,0.E0,1.E0));
#401=DIRECTION('',(1.E0,0.E0,0.E0));
#402=AXIS2_PLACEMENT_3D('',#399,#400,#401);
#403=PLANE('',#402);
#405=ORIENTED_EDGE('',*,*,#404,.F.);
#407=ORIENTED_EDGE('',*,*,#406,.F.);
#408=EDGE_LOOP('',(#405,#407));
#409=FACE_OUTER_BOUND('',#408,.F.);
#411=CARTESIAN_POINT('',(0.E0,0.E0,0.E0));
#412=DIRECTION('',(0.E0,0.E0,1.E0));
#413=DIRECTION('',(1.E0,0.E0,0.E0));
#414=AXIS2_PLACEMENT_3D('',#411,#412,#413);
#415=CYLINDRICAL_SURFACE('',#414,2.4E0);
#417=ORIENTED_EDGE('',*,*,#416,.T.);
#419=ORIENTED_EDGE('',*,*,#418,.T.);
#420=ORIENTED_EDGE('',*,*,#404,.T.);
#422=ORIENTED_EDGE('',*,*,#421,.F.);
#423=EDGE_LOOP('',(#417,#419,#420,#422));
#424=FACE_OUTER_BOUND('',#423,.F.);
#426=CARTESIAN_POINT('',(-3.000162102391E0,2.4E0,4.E0));
#427=DIRECTION('',(0.E0,0.E0,1.E0));
#428=DIRECTION('',(0.E0,-1.E0,0.E0));
#429=AXIS2_PLACEMENT_3D('',#426,#427,#428);
#430=PLANE('',#429);
#431=ORIENTED_EDGE('',*,*,#416,.F.);
#433=ORIENTED_EDGE('',*,*,#432,.F.);
#434=EDGE_LOOP('',(#431,#433));
#435=FACE_OUTER_BOUND('',#434,.F.);
#437=CARTESIAN_POINT('',(0.E0,0.E0,0.E0));
#438=DIRECTION('',(0.E0,0.E0,1.E0));
#439=DIRECTION('',(1.E0,0.E0,0.E0));
#440=AXIS2_PLACEMENT_3D('',#437,#438,#439);
#441=CYLINDRICAL_SURFACE('',#440,2.4E0);
#442=ORIENTED_EDGE('',*,*,#432,.T.);
#443=ORIENTED_EDGE('',*,*,#421,.T.);
#444=ORIENTED_EDGE('',*,*,#406,.T.);
#445=ORIENTED_EDGE('',*,*,#418,.F.);
#446=EDGE_LOOP('',(#442,#443,#444,#445));
#447=FACE_OUTER_BOUND('',#446,.F.);
#449=CLOSED_SHELL('',(#410,#425,#436,#448));
#450=MANIFOLD_SOLID_BREP('',#449);
#452=DIMENSIONAL_EXPONENTS(0.E0,0.E0,0.E0,0.E0,0.E0,0.E0,0.E0);
#454=PLANE_ANGLE_MEASURE_WITH_UNIT(PLANE_ANGLE_MEASURE(1.745329251994E-2),#453);
#455=(CONVERSION_BASED_UNIT('DEGREE',#454)NAMED_UNIT(*)PLANE_ANGLE_UNIT());
#457=UNCERTAINTY_MEASURE_WITH_UNIT(LENGTH_MEASURE(3.470039246755E-4),#451,
'closure',
'Maximum model space distance between geometric entities at asserted connectivities');
#460=APPLICATION_CONTEXT(
'CONFIGURATION CONTROLLED 3D DESIGNS OF MECHANICAL PARTS AND ASSEMBLIES');
#461=APPLICATION_PROTOCOL_DEFINITION('international standard',
'config_control_design',1994,#460);
#462=DESIGN_CONTEXT('',#460,'design');
#463=MECHANICAL_CONTEXT('',#460,'mechanical');
#464=PRODUCT('2035-XX-SM','2035-XX-SM','NOT SPECIFIED',(#463));
#465=PRODUCT_DEFINITION_FORMATION_WITH_SPECIFIED_SOURCE('2','LAST_VERSION',#464,
.MADE.);
#469=PRODUCT_CATEGORY('part','');
#470=PRODUCT_RELATED_PRODUCT_CATEGORY('detail','',(#464));
#471=PRODUCT_CATEGORY_RELATIONSHIP('','',#469,#470);
#472=SECURITY_CLASSIFICATION_LEVEL('unclassified');
#473=SECURITY_CLASSIFICATION('','',#472);
#474=CC_DESIGN_SECURITY_CLASSIFICATION(#473,(#465));
#475=APPROVAL_STATUS('approved');
#476=APPROVAL(#475,'');
#477=CC_DESIGN_APPROVAL(#476,(#473,#465,#466));
#478=CALENDAR_DATE(112,3,8);
#479=COORDINATED_UNIVERSAL_TIME_OFFSET(7,0,.BEHIND.);
#480=LOCAL_TIME(11,11,5.9E1,#479);
#481=DATE_AND_TIME(#478,#480);
#482=APPROVAL_DATE_TIME(#481,#476);
#483=DATE_TIME_ROLE('creation_date');
#484=CC_DESIGN_DATE_AND_TIME_ASSIGNMENT(#481,#483,(#466));
#485=DATE_TIME_ROLE('classification_date');
#486=CC_DESIGN_DATE_AND_TIME_ASSIGNMENT(#481,#485,(#473));
#487=PERSON('UNSPECIFIED','UNSPECIFIED',$,$,$,$);
#488=ORGANIZATION('UNSPECIFIED','UNSPECIFIED','UNSPECIFIED');
#489=PERSON_AND_ORGANIZATION(#487,#488);
#490=APPROVAL_ROLE('approver');
#491=APPROVAL_PERSON_ORGANIZATION(#489,#476,#490);
#492=PERSON_AND_ORGANIZATION_ROLE('creator');
#493=CC_DESIGN_PERSON_AND_ORGANIZATION_ASSIGNMENT(#489,#492,(#465,#466));
#494=PERSON_AND_ORGANIZATION_ROLE('design_supplier');
#495=CC_DESIGN_PERSON_AND_ORGANIZATION_ASSIGNMENT(#489,#494,(#465));
#496=PERSON_AND_ORGANIZATION_ROLE('classification_officer');
#497=CC_DESIGN_PERSON_AND_ORGANIZATION_ASSIGNMENT(#489,#496,(#473));
#498=PERSON_AND_ORGANIZATION_ROLE('design_owner');
#499=CC_DESIGN_PERSON_AND_ORGANIZATION_ASSIGNMENT(#489,#498,(#464));
#5=CIRCLE('',#4,2.4E0);
#14=CIRCLE('',#13,2.4E0);
#55=CIRCLE('',#54,2.4E0);
#60=CIRCLE('',#59,2.4E0);
#170=EDGE_CURVE('',#163,#164,#5,.T.);
#172=EDGE_CURVE('',#164,#163,#14,.T.);
#176=ADVANCED_FACE('',(#175),#169,.F.);
#183=EDGE_CURVE('',#160,#164,#18,.T.);
#185=EDGE_CURVE('',#159,#160,#55,.T.);
#187=EDGE_CURVE('',#159,#163,#9,.T.);
#191=ADVANCED_FACE('',(#190),#181,.T.);
#199=EDGE_CURVE('',#160,#159,#60,.T.);
#204=ADVANCED_FACE('',(#203),#196,.T.);
#210=EDGE_CURVE('',#143,#144,#22,.T.);
#212=EDGE_CURVE('',#156,#143,#26,.T.);
#214=EDGE_CURVE('',#154,#156,#30,.T.);
#216=EDGE_CURVE('',#152,#154,#34,.T.);
#218=EDGE_CURVE('',#150,#152,#38,.T.);
#220=EDGE_CURVE('',#148,#150,#42,.T.);
#222=EDGE_CURVE('',#146,#148,#46,.T.);
#224=EDGE_CURVE('',#144,#146,#50,.T.);
#232=ADVANCED_FACE('',(#227,#231),#209,.T.);
#238=EDGE_CURVE('',#127,#128,#68,.T.);
#240=EDGE_CURVE('',#127,#143,#64,.T.);
#243=EDGE_CURVE('',#128,#144,#100,.T.);
#247=ADVANCED_FACE('',(#246),#237,.T.);
#254=EDGE_CURVE('',#128,#130,#72,.T.);
#256=EDGE_CURVE('',#130,#132,#76,.T.);
#258=EDGE_CURVE('',#132,#134,#80,.T.);
#260=EDGE_CURVE('',#134,#136,#84,.T.);
#262=EDGE_CURVE('',#136,#138,#88,.T.);
#264=EDGE_CURVE('',#138,#140,#92,.T.);
#266=EDGE_CURVE('',#140,#127,#96,.T.);
#270=ADVANCED_FACE('',(#269),#252,.F.);
#279=EDGE_CURVE('',#130,#146,#104,.T.);
#283=ADVANCED_FACE('',(#282),#275,.T.);
#292=EDGE_CURVE('',#132,#148,#108,.T.);
#296=ADVANCED_FACE('',(#295),#288,.T.);
#305=EDGE_CURVE('',#134,#150,#112,.T.);
#309=ADVANCED_FACE('',(#308),#301,.T.);
#318=EDGE_CURVE('',#136,#152,#116,.T.);
#322=ADVANCED_FACE('',(#321),#314,.T.);
#331=EDGE_CURVE('',#138,#154,#120,.T.);
#335=ADVANCED_FACE('',(#334),#327,.T.);
#344=EDGE_CURVE('',#140,#156,#124,.T.);
#348=ADVANCED_FACE('',(#347),#340,.T.);
#360=ADVANCED_FACE('',(#359),#353,.T.);
#367=CIRCLE('',#366,2.4E0);
#372=CIRCLE('',#371,2.4E0);
#377=CIRCLE('',#376,2.4E0);
#386=CIRCLE('',#385,2.4E0);
#404=EDGE_CURVE('',#393,#394,#367,.T.);
#406=EDGE_CURVE('',#394,#393,#372,.T.);
#410=ADVANCED_FACE('',(#409),#403,.T.);
#416=EDGE_CURVE('',#397,#398,#377,.T.);
#418=EDGE_CURVE('',#398,#393,#381,.T.);
#421=EDGE_CURVE('',#397,#394,#390,.T.);
#425=ADVANCED_FACE('',(#424),#415,.T.);
#432=EDGE_CURVE('',#398,#397,#386,.T.);
#436=ADVANCED_FACE('',(#435),#430,.F.);
#448=ADVANCED_FACE('',(#447),#441,.T.);
#451=(LENGTH_UNIT()NAMED_UNIT(*)SI_UNIT(.MILLI.,.METRE.));
#453=(NAMED_UNIT(*)PLANE_ANGLE_UNIT()SI_UNIT($,.RADIAN.));
#456=(NAMED_UNIT(*)SI_UNIT($,.STERADIAN.)SOLID_ANGLE_UNIT());
#458=(GEOMETRIC_REPRESENTATION_CONTEXT(3)GLOBAL_UNCERTAINTY_ASSIGNED_CONTEXT((
#457))GLOBAL_UNIT_ASSIGNED_CONTEXT((#451,#455,#456))REPRESENTATION_CONTEXT
('ID1','3'));
#459=ADVANCED_BREP_SHAPE_REPRESENTATION('',(#362,#450),#458);
#466=PRODUCT_DEFINITION('design','',#465,#462);
#467=PRODUCT_DEFINITION_SHAPE('','SHAPE FOR 2035-XX-SM.',#466);
#468=SHAPE_DEFINITION_REPRESENTATION(#467,#459);
ENDSEC;
END-ISO-10303-21;
