ISO-10303-21;
HEADER;
FILE_DESCRIPTION((''),'2;1');
FILE_NAME('2035-XX-A1','2012-08-03T',('ryans'),('Bourns, Inc.'),
'PRO/ENGINEER BY PARAMETRIC TECHNOLOGY CORPORATION, 2010100',
'PRO/ENGINEER BY PARAMETRIC TECHNOLOGY CORPORATION, 2010100','');
FILE_SCHEMA(('CONFIG_CONTROL_DESIGN'));
ENDSEC;
DATA;
#1=CARTESIAN_POINT('',(0.E0,0.E0,1.224646799147E-14));
#2=DIRECTION('',(1.E0,0.E0,0.E0));
#3=DIRECTION('',(0.E0,-1.E0,0.E0));
#4=AXIS2_PLACEMENT_3D('',#1,#2,#3);
#6=CARTESIAN_POINT('',(0.E0,0.E0,1.224646799147E-14));
#7=DIRECTION('',(1.E0,0.E0,0.E0));
#8=DIRECTION('',(0.E0,1.E0,0.E0));
#9=AXIS2_PLACEMENT_3D('',#6,#7,#8);
#11=CARTESIAN_POINT('',(0.E0,0.E0,0.E0));
#12=DIRECTION('',(-1.E0,0.E0,0.E0));
#13=DIRECTION('',(0.E0,0.E0,-1.E0));
#14=AXIS2_PLACEMENT_3D('',#11,#12,#13);
#16=CARTESIAN_POINT('',(0.E0,0.E0,0.E0));
#17=DIRECTION('',(-1.E0,0.E0,0.E0));
#18=DIRECTION('',(0.E0,0.E0,1.E0));
#19=AXIS2_PLACEMENT_3D('',#16,#17,#18);
#21=CARTESIAN_POINT('',(3.E-1,0.E0,1.224646799147E-14));
#22=DIRECTION('',(1.E0,0.E0,0.E0));
#23=DIRECTION('',(0.E0,-1.E0,0.E0));
#24=AXIS2_PLACEMENT_3D('',#21,#22,#23);
#26=DIRECTION('',(1.E0,0.E0,0.E0));
#27=VECTOR('',#26,3.E-1);
#28=CARTESIAN_POINT('',(0.E0,-2.5E0,1.255262969126E-14));
#29=LINE('',#28,#27);
#30=CARTESIAN_POINT('',(3.E-1,0.E0,0.E0));
#31=DIRECTION('',(-1.E0,0.E0,0.E0));
#32=DIRECTION('',(0.E0,0.E0,-1.E0));
#33=AXIS2_PLACEMENT_3D('',#30,#31,#32);
#35=CARTESIAN_POINT('',(3.E-1,0.E0,0.E0));
#36=DIRECTION('',(-1.E0,0.E0,0.E0));
#37=DIRECTION('',(0.E0,0.E0,1.E0));
#38=AXIS2_PLACEMENT_3D('',#35,#36,#37);
#40=CARTESIAN_POINT('',(3.E-1,0.E0,1.224646799147E-14));
#41=DIRECTION('',(1.E0,0.E0,0.E0));
#42=DIRECTION('',(0.E0,1.E0,0.E0));
#43=AXIS2_PLACEMENT_3D('',#40,#41,#42);
#45=DIRECTION('',(1.E0,0.E0,0.E0));
#46=VECTOR('',#45,3.E-1);
#47=CARTESIAN_POINT('',(0.E0,2.5E0,1.194030629169E-14));
#48=LINE('',#47,#46);
#49=DIRECTION('',(1.E0,0.E0,0.E0));
#50=VECTOR('',#49,3.E-1);
#51=CARTESIAN_POINT('',(0.E0,0.E0,-1.25E0));
#52=LINE('',#51,#50);
#53=DIRECTION('',(1.E0,0.E0,0.E0));
#54=VECTOR('',#53,3.E-1);
#55=CARTESIAN_POINT('',(0.E0,0.E0,1.25E0));
#56=LINE('',#55,#54);
#57=CARTESIAN_POINT('',(0.E0,-2.5E0,1.255262969126E-14));
#58=CARTESIAN_POINT('',(0.E0,2.5E0,1.163414459190E-14));
#59=VERTEX_POINT('',#57);
#60=VERTEX_POINT('',#58);
#61=CARTESIAN_POINT('',(3.E-1,-2.5E0,1.287858708565E-14));
#62=CARTESIAN_POINT('',(3.E-1,2.5E0,1.130818719751E-14));
#63=VERTEX_POINT('',#61);
#64=VERTEX_POINT('',#62);
#65=CARTESIAN_POINT('',(0.E0,0.E0,-1.25E0));
#66=CARTESIAN_POINT('',(0.E0,0.E0,1.25E0));
#67=VERTEX_POINT('',#65);
#68=VERTEX_POINT('',#66);
#69=CARTESIAN_POINT('',(3.E-1,0.E0,-1.25E0));
#70=CARTESIAN_POINT('',(3.E-1,0.E0,1.25E0));
#71=VERTEX_POINT('',#69);
#72=VERTEX_POINT('',#70);
#73=CARTESIAN_POINT('',(0.E0,0.E0,0.E0));
#74=DIRECTION('',(1.E0,0.E0,0.E0));
#75=DIRECTION('',(0.E0,-1.E0,0.E0));
#76=AXIS2_PLACEMENT_3D('',#73,#74,#75);
#77=PLANE('',#76);
#79=ORIENTED_EDGE('',*,*,#78,.T.);
#81=ORIENTED_EDGE('',*,*,#80,.T.);
#82=EDGE_LOOP('',(#79,#81));
#83=FACE_OUTER_BOUND('',#82,.F.);
#85=ORIENTED_EDGE('',*,*,#84,.T.);
#87=ORIENTED_EDGE('',*,*,#86,.T.);
#88=EDGE_LOOP('',(#85,#87));
#89=FACE_BOUND('',#88,.F.);
#91=CARTESIAN_POINT('',(0.E0,0.E0,1.224646799147E-14));
#92=DIRECTION('',(1.E0,0.E0,0.E0));
#93=DIRECTION('',(0.E0,-1.E0,0.E0));
#94=AXIS2_PLACEMENT_3D('',#91,#92,#93);
#95=CYLINDRICAL_SURFACE('',#94,2.5E0);
#97=ORIENTED_EDGE('',*,*,#96,.T.);
#99=ORIENTED_EDGE('',*,*,#98,.F.);
#100=ORIENTED_EDGE('',*,*,#78,.F.);
#102=ORIENTED_EDGE('',*,*,#101,.T.);
#103=EDGE_LOOP('',(#97,#99,#100,#102));
#104=FACE_OUTER_BOUND('',#103,.F.);
#106=CARTESIAN_POINT('',(3.E-1,-3.E0,-2.5E0));
#107=DIRECTION('',(-1.E0,0.E0,0.E0));
#108=DIRECTION('',(0.E0,0.E0,1.E0));
#109=AXIS2_PLACEMENT_3D('',#106,#107,#108);
#110=PLANE('',#109);
#111=ORIENTED_EDGE('',*,*,#96,.F.);
#113=ORIENTED_EDGE('',*,*,#112,.F.);
#114=EDGE_LOOP('',(#111,#113));
#115=FACE_OUTER_BOUND('',#114,.F.);
#117=ORIENTED_EDGE('',*,*,#116,.F.);
#119=ORIENTED_EDGE('',*,*,#118,.F.);
#120=EDGE_LOOP('',(#117,#119));
#121=FACE_BOUND('',#120,.F.);
#123=CARTESIAN_POINT('',(0.E0,0.E0,1.224646799147E-14));
#124=DIRECTION('',(1.E0,0.E0,0.E0));
#125=DIRECTION('',(0.E0,-1.E0,0.E0));
#126=AXIS2_PLACEMENT_3D('',#123,#124,#125);
#127=CYLINDRICAL_SURFACE('',#126,2.5E0);
#128=ORIENTED_EDGE('',*,*,#112,.T.);
#129=ORIENTED_EDGE('',*,*,#101,.F.);
#130=ORIENTED_EDGE('',*,*,#80,.F.);
#131=ORIENTED_EDGE('',*,*,#98,.T.);
#132=EDGE_LOOP('',(#128,#129,#130,#131));
#133=FACE_OUTER_BOUND('',#132,.F.);
#135=CARTESIAN_POINT('',(0.E0,0.E0,0.E0));
#136=DIRECTION('',(-1.E0,0.E0,0.E0));
#137=DIRECTION('',(0.E0,0.E0,-1.E0));
#138=AXIS2_PLACEMENT_3D('',#135,#136,#137);
#139=CYLINDRICAL_SURFACE('',#138,1.25E0);
#140=ORIENTED_EDGE('',*,*,#84,.F.);
#142=ORIENTED_EDGE('',*,*,#141,.T.);
#143=ORIENTED_EDGE('',*,*,#116,.T.);
#145=ORIENTED_EDGE('',*,*,#144,.F.);
#146=EDGE_LOOP('',(#140,#142,#143,#145));
#147=FACE_OUTER_BOUND('',#146,.F.);
#149=CARTESIAN_POINT('',(0.E0,0.E0,0.E0));
#150=DIRECTION('',(-1.E0,0.E0,0.E0));
#151=DIRECTION('',(0.E0,0.E0,-1.E0));
#152=AXIS2_PLACEMENT_3D('',#149,#150,#151);
#153=CYLINDRICAL_SURFACE('',#152,1.25E0);
#154=ORIENTED_EDGE('',*,*,#86,.F.);
#155=ORIENTED_EDGE('',*,*,#144,.T.);
#156=ORIENTED_EDGE('',*,*,#118,.T.);
#157=ORIENTED_EDGE('',*,*,#141,.F.);
#158=EDGE_LOOP('',(#154,#155,#156,#157));
#159=FACE_OUTER_BOUND('',#158,.F.);
#161=CLOSED_SHELL('',(#90,#105,#122,#134,#148,#160));
#162=MANIFOLD_SOLID_BREP('',#161);
#163=CARTESIAN_POINT('',(4.1E0,0.E0,1.224646799147E-14));
#164=DIRECTION('',(1.E0,0.E0,0.E0));
#165=DIRECTION('',(0.E0,-1.E0,0.E0));
#166=AXIS2_PLACEMENT_3D('',#163,#164,#165);
#168=CARTESIAN_POINT('',(4.1E0,0.E0,1.224646799147E-14));
#169=DIRECTION('',(1.E0,0.E0,0.E0));
#170=DIRECTION('',(0.E0,1.E0,0.E0));
#171=AXIS2_PLACEMENT_3D('',#168,#169,#170);
#173=CARTESIAN_POINT('',(4.1E0,0.E0,0.E0));
#174=DIRECTION('',(1.E0,0.E0,0.E0));
#175=DIRECTION('',(0.E0,-1.E0,0.E0));
#176=AXIS2_PLACEMENT_3D('',#173,#174,#175);
#178=CARTESIAN_POINT('',(4.1E0,0.E0,0.E0));
#179=DIRECTION('',(1.E0,0.E0,0.E0));
#180=DIRECTION('',(0.E0,1.E0,0.E0));
#181=AXIS2_PLACEMENT_3D('',#178,#179,#180);
#183=CARTESIAN_POINT('',(3.8E0,0.E0,1.224646799147E-14));
#184=DIRECTION('',(-1.E0,0.E0,0.E0));
#185=DIRECTION('',(0.E0,1.E0,0.E0));
#186=AXIS2_PLACEMENT_3D('',#183,#184,#185);
#188=DIRECTION('',(1.E0,0.E0,0.E0));
#189=VECTOR('',#188,3.E-1);
#190=CARTESIAN_POINT('',(3.8E0,-2.5E0,1.342946987076E-14));
#191=LINE('',#190,#189);
#192=CARTESIAN_POINT('',(3.8E0,0.E0,0.E0));
#193=DIRECTION('',(1.E0,0.E0,0.E0));
#194=DIRECTION('',(0.E0,-1.E0,0.E0));
#195=AXIS2_PLACEMENT_3D('',#192,#193,#194);
#197=CARTESIAN_POINT('',(3.8E0,0.E0,0.E0));
#198=DIRECTION('',(1.E0,0.E0,0.E0));
#199=DIRECTION('',(0.E0,1.E0,0.E0));
#200=AXIS2_PLACEMENT_3D('',#197,#198,#199);
#202=CARTESIAN_POINT('',(3.8E0,0.E0,1.224646799147E-14));
#203=DIRECTION('',(-1.E0,0.E0,0.E0));
#204=DIRECTION('',(0.E0,-1.E0,0.E0));
#205=AXIS2_PLACEMENT_3D('',#202,#203,#204);
#207=DIRECTION('',(1.E0,0.E0,0.E0));
#208=VECTOR('',#207,3.E-1);
#209=CARTESIAN_POINT('',(3.8E0,2.5E0,1.077276919017E-14));
#210=LINE('',#209,#208);
#211=DIRECTION('',(-1.E0,0.E0,0.E0));
#212=VECTOR('',#211,3.E-1);
#213=CARTESIAN_POINT('',(4.1E0,-1.25E0,0.E0));
#214=LINE('',#213,#212);
#215=DIRECTION('',(-1.E0,0.E0,0.E0));
#216=VECTOR('',#215,3.E-1);
#217=CARTESIAN_POINT('',(4.1E0,1.25E0,0.E0));
#218=LINE('',#217,#216);
#219=CARTESIAN_POINT('',(4.1E0,-2.5E0,1.255262969126E-14));
#220=CARTESIAN_POINT('',(4.1E0,2.5E0,1.163414459190E-14));
#221=VERTEX_POINT('',#219);
#222=VERTEX_POINT('',#220);
#223=CARTESIAN_POINT('',(3.8E0,2.5E0,1.065814103640E-14));
#224=CARTESIAN_POINT('',(3.8E0,-2.5E0,1.352863324676E-14));
#225=VERTEX_POINT('',#223);
#226=VERTEX_POINT('',#224);
#227=CARTESIAN_POINT('',(4.1E0,-1.25E0,0.E0));
#228=CARTESIAN_POINT('',(4.1E0,1.25E0,0.E0));
#229=VERTEX_POINT('',#227);
#230=VERTEX_POINT('',#228);
#231=CARTESIAN_POINT('',(3.8E0,-1.25E0,0.E0));
#232=CARTESIAN_POINT('',(3.8E0,1.25E0,0.E0));
#233=VERTEX_POINT('',#231);
#234=VERTEX_POINT('',#232);
#235=CARTESIAN_POINT('',(4.1E0,0.E0,0.E0));
#236=DIRECTION('',(1.E0,0.E0,0.E0));
#237=DIRECTION('',(0.E0,-1.E0,0.E0));
#238=AXIS2_PLACEMENT_3D('',#235,#236,#237);
#239=PLANE('',#238);
#241=ORIENTED_EDGE('',*,*,#240,.F.);
#243=ORIENTED_EDGE('',*,*,#242,.F.);
#244=EDGE_LOOP('',(#241,#243));
#245=FACE_OUTER_BOUND('',#244,.F.);
#247=ORIENTED_EDGE('',*,*,#246,.T.);
#249=ORIENTED_EDGE('',*,*,#248,.T.);
#250=EDGE_LOOP('',(#247,#249));
#251=FACE_BOUND('',#250,.F.);
#253=CARTESIAN_POINT('',(0.E0,0.E0,1.224646799147E-14));
#254=DIRECTION('',(1.E0,0.E0,0.E0));
#255=DIRECTION('',(0.E0,-1.E0,0.E0));
#256=AXIS2_PLACEMENT_3D('',#253,#254,#255);
#257=CYLINDRICAL_SURFACE('',#256,2.5E0);
#259=ORIENTED_EDGE('',*,*,#258,.T.);
#261=ORIENTED_EDGE('',*,*,#260,.T.);
#262=ORIENTED_EDGE('',*,*,#240,.T.);
#264=ORIENTED_EDGE('',*,*,#263,.F.);
#265=EDGE_LOOP('',(#259,#261,#262,#264));
#266=FACE_OUTER_BOUND('',#265,.F.);
#268=CARTESIAN_POINT('',(3.8E0,-3.E0,2.5E0));
#269=DIRECTION('',(1.E0,0.E0,0.E0));
#270=DIRECTION('',(0.E0,0.E0,-1.E0));
#271=AXIS2_PLACEMENT_3D('',#268,#269,#270);
#272=PLANE('',#271);
#273=ORIENTED_EDGE('',*,*,#258,.F.);
#275=ORIENTED_EDGE('',*,*,#274,.F.);
#276=EDGE_LOOP('',(#273,#275));
#277=FACE_OUTER_BOUND('',#276,.F.);
#279=ORIENTED_EDGE('',*,*,#278,.F.);
#281=ORIENTED_EDGE('',*,*,#280,.F.);
#282=EDGE_LOOP('',(#279,#281));
#283=FACE_BOUND('',#282,.F.);
#285=CARTESIAN_POINT('',(0.E0,0.E0,1.224646799147E-14));
#286=DIRECTION('',(1.E0,0.E0,0.E0));
#287=DIRECTION('',(0.E0,-1.E0,0.E0));
#288=AXIS2_PLACEMENT_3D('',#285,#286,#287);
#289=CYLINDRICAL_SURFACE('',#288,2.5E0);
#290=ORIENTED_EDGE('',*,*,#274,.T.);
#291=ORIENTED_EDGE('',*,*,#263,.T.);
#292=ORIENTED_EDGE('',*,*,#242,.T.);
#293=ORIENTED_EDGE('',*,*,#260,.F.);
#294=EDGE_LOOP('',(#290,#291,#292,#293));
#295=FACE_OUTER_BOUND('',#294,.F.);
#297=CARTESIAN_POINT('',(4.1E0,0.E0,0.E0));
#298=DIRECTION('',(1.E0,0.E0,0.E0));
#299=DIRECTION('',(0.E0,-1.E0,0.E0));
#300=AXIS2_PLACEMENT_3D('',#297,#298,#299);
#301=CYLINDRICAL_SURFACE('',#300,1.25E0);
#302=ORIENTED_EDGE('',*,*,#246,.F.);
#304=ORIENTED_EDGE('',*,*,#303,.T.);
#305=ORIENTED_EDGE('',*,*,#278,.T.);
#307=ORIENTED_EDGE('',*,*,#306,.F.);
#308=EDGE_LOOP('',(#302,#304,#305,#307));
#309=FACE_OUTER_BOUND('',#308,.F.);
#311=CARTESIAN_POINT('',(4.1E0,0.E0,0.E0));
#312=DIRECTION('',(1.E0,0.E0,0.E0));
#313=DIRECTION('',(0.E0,-1.E0,0.E0));
#314=AXIS2_PLACEMENT_3D('',#311,#312,#313);
#315=CYLINDRICAL_SURFACE('',#314,1.25E0);
#316=ORIENTED_EDGE('',*,*,#248,.F.);
#317=ORIENTED_EDGE('',*,*,#306,.T.);
#318=ORIENTED_EDGE('',*,*,#280,.T.);
#319=ORIENTED_EDGE('',*,*,#303,.F.);
#320=EDGE_LOOP('',(#316,#317,#318,#319));
#321=FACE_OUTER_BOUND('',#320,.F.);
#323=CLOSED_SHELL('',(#252,#267,#284,#296,#310,#322));
#324=MANIFOLD_SOLID_BREP('',#323);
#325=CARTESIAN_POINT('',(3.79E0,0.E0,1.224646799147E-14));
#326=DIRECTION('',(1.E0,0.E0,0.E0));
#327=DIRECTION('',(0.E0,1.E0,0.E0));
#328=AXIS2_PLACEMENT_3D('',#325,#326,#327);
#330=CARTESIAN_POINT('',(3.1E-1,0.E0,1.224646799147E-14));
#331=DIRECTION('',(-1.E0,0.E0,0.E0));
#332=DIRECTION('',(0.E0,-1.E0,0.E0));
#333=AXIS2_PLACEMENT_3D('',#330,#331,#332);
#335=DIRECTION('',(1.E0,0.E0,0.E0));
#336=VECTOR('',#335,3.48E0);
#337=CARTESIAN_POINT('',(3.1E-1,2.5E0,1.195700708311E-14));
#338=LINE('',#337,#336);
#339=CARTESIAN_POINT('',(3.79E0,0.E0,0.E0));
#340=DIRECTION('',(1.E0,0.E0,0.E0));
#341=DIRECTION('',(0.E0,-1.E0,0.E0));
#342=AXIS2_PLACEMENT_3D('',#339,#340,#341);
#344=CARTESIAN_POINT('',(3.79E0,0.E0,0.E0));
#345=DIRECTION('',(1.E0,0.E0,0.E0));
#346=DIRECTION('',(0.E0,1.E0,0.E0));
#347=AXIS2_PLACEMENT_3D('',#344,#345,#346);
#349=CARTESIAN_POINT('',(3.79E0,0.E0,1.224646799147E-14));
#350=DIRECTION('',(1.E0,0.E0,0.E0));
#351=DIRECTION('',(0.E0,-1.E0,0.E0));
#352=AXIS2_PLACEMENT_3D('',#349,#350,#351);
#354=CARTESIAN_POINT('',(3.1E-1,0.E0,1.224646799147E-14));
#355=DIRECTION('',(-1.E0,0.E0,0.E0));
#356=DIRECTION('',(0.E0,1.E0,0.E0));
#357=AXIS2_PLACEMENT_3D('',#354,#355,#356);
#359=DIRECTION('',(1.E0,0.E0,0.E0));
#360=VECTOR('',#359,3.48E0);
#361=CARTESIAN_POINT('',(3.1E-1,-2.5E0,1.276333605599E-14));
#362=LINE('',#361,#360);
#363=CARTESIAN_POINT('',(3.1E-1,0.E0,0.E0));
#364=DIRECTION('',(-1.E0,0.E0,0.E0));
#365=DIRECTION('',(0.E0,0.E0,-1.E0));
#366=AXIS2_PLACEMENT_3D('',#363,#364,#365);
#368=CARTESIAN_POINT('',(3.1E-1,0.E0,0.E0));
#369=DIRECTION('',(-1.E0,0.E0,0.E0));
#370=DIRECTION('',(0.E0,0.E0,1.E0));
#371=AXIS2_PLACEMENT_3D('',#368,#369,#370);
#373=DIRECTION('',(1.E0,0.E0,0.E0));
#374=VECTOR('',#373,1.9E-1);
#375=CARTESIAN_POINT('',(3.1E-1,0.E0,-1.25E0));
#376=LINE('',#375,#374);
#377=DIRECTION('',(1.E0,0.E0,0.E0));
#378=VECTOR('',#377,1.9E-1);
#379=CARTESIAN_POINT('',(3.1E-1,0.E0,1.25E0));
#380=LINE('',#379,#378);
#381=CARTESIAN_POINT('',(5.E-1,0.E0,0.E0));
#382=DIRECTION('',(1.E0,0.E0,0.E0));
#383=DIRECTION('',(0.E0,0.E0,1.E0));
#384=AXIS2_PLACEMENT_3D('',#381,#382,#383);
#386=CARTESIAN_POINT('',(5.E-1,0.E0,0.E0));
#387=DIRECTION('',(1.E0,0.E0,0.E0));
#388=DIRECTION('',(0.E0,0.E0,-1.E0));
#389=AXIS2_PLACEMENT_3D('',#386,#387,#388);
#391=DIRECTION('',(-1.E0,0.E0,0.E0));
#392=VECTOR('',#391,1.9E-1);
#393=CARTESIAN_POINT('',(3.79E0,-1.25E0,0.E0));
#394=LINE('',#393,#392);
#395=DIRECTION('',(-1.E0,0.E0,0.E0));
#396=VECTOR('',#395,1.9E-1);
#397=CARTESIAN_POINT('',(3.79E0,1.25E0,0.E0));
#398=LINE('',#397,#396);
#399=CARTESIAN_POINT('',(3.6E0,0.E0,0.E0));
#400=DIRECTION('',(1.E0,0.E0,0.E0));
#401=DIRECTION('',(0.E0,-1.E0,0.E0));
#402=AXIS2_PLACEMENT_3D('',#399,#400,#401);
#404=CARTESIAN_POINT('',(3.6E0,0.E0,0.E0));
#405=DIRECTION('',(1.E0,0.E0,0.E0));
#406=DIRECTION('',(0.E0,1.E0,0.E0));
#407=AXIS2_PLACEMENT_3D('',#404,#405,#406);
#409=CARTESIAN_POINT('',(3.79E0,-2.5E0,1.287858708565E-14));
#410=CARTESIAN_POINT('',(3.79E0,2.5E0,1.130818719751E-14));
#411=VERTEX_POINT('',#409);
#412=VERTEX_POINT('',#410);
#413=CARTESIAN_POINT('',(3.1E-1,2.5E0,1.199040866595E-14));
#414=CARTESIAN_POINT('',(3.1E-1,-2.5E0,1.219636561721E-14));
#415=VERTEX_POINT('',#413);
#416=VERTEX_POINT('',#414);
#417=CARTESIAN_POINT('',(3.6E0,-1.25E0,0.E0));
#418=CARTESIAN_POINT('',(3.6E0,1.25E0,0.E0));
#419=VERTEX_POINT('',#417);
#420=VERTEX_POINT('',#418);
#421=CARTESIAN_POINT('',(5.E-1,0.E0,1.25E0));
#422=CARTESIAN_POINT('',(5.E-1,0.E0,-1.25E0));
#423=VERTEX_POINT('',#421);
#424=VERTEX_POINT('',#422);
#425=CARTESIAN_POINT('',(3.79E0,-1.25E0,0.E0));
#426=CARTESIAN_POINT('',(3.79E0,1.25E0,0.E0));
#427=VERTEX_POINT('',#425);
#428=VERTEX_POINT('',#426);
#429=CARTESIAN_POINT('',(3.1E-1,0.E0,-1.25E0));
#430=CARTESIAN_POINT('',(3.1E-1,0.E0,1.25E0));
#431=VERTEX_POINT('',#429);
#432=VERTEX_POINT('',#430);
#433=CARTESIAN_POINT('',(0.E0,0.E0,1.224646799147E-14));
#434=DIRECTION('',(1.E0,0.E0,0.E0));
#435=DIRECTION('',(0.E0,-1.E0,0.E0));
#436=AXIS2_PLACEMENT_3D('',#433,#434,#435);
#437=CYLINDRICAL_SURFACE('',#436,2.5E0);
#439=ORIENTED_EDGE('',*,*,#438,.T.);
#441=ORIENTED_EDGE('',*,*,#440,.F.);
#443=ORIENTED_EDGE('',*,*,#442,.T.);
#445=ORIENTED_EDGE('',*,*,#444,.T.);
#446=EDGE_LOOP('',(#439,#441,#443,#445));
#447=FACE_OUTER_BOUND('',#446,.F.);
#449=CARTESIAN_POINT('',(3.79E0,-3.E0,-2.5E0));
#450=DIRECTION('',(-1.E0,0.E0,0.E0));
#451=DIRECTION('',(0.E0,0.E0,1.E0));
#452=AXIS2_PLACEMENT_3D('',#449,#450,#451);
#453=PLANE('',#452);
#455=ORIENTED_EDGE('',*,*,#454,.F.);
#456=ORIENTED_EDGE('',*,*,#438,.F.);
#457=EDGE_LOOP('',(#455,#456));
#458=FACE_OUTER_BOUND('',#457,.F.);
#460=ORIENTED_EDGE('',*,*,#459,.T.);
#462=ORIENTED_EDGE('',*,*,#461,.T.);
#463=EDGE_LOOP('',(#460,#462));
#464=FACE_BOUND('',#463,.F.);
#466=CARTESIAN_POINT('',(0.E0,0.E0,1.224646799147E-14));
#467=DIRECTION('',(1.E0,0.E0,0.E0));
#468=DIRECTION('',(0.E0,-1.E0,0.E0));
#469=AXIS2_PLACEMENT_3D('',#466,#467,#468);
#470=CYLINDRICAL_SURFACE('',#469,2.5E0);
#471=ORIENTED_EDGE('',*,*,#454,.T.);
#472=ORIENTED_EDGE('',*,*,#444,.F.);
#474=ORIENTED_EDGE('',*,*,#473,.T.);
#475=ORIENTED_EDGE('',*,*,#440,.T.);
#476=EDGE_LOOP('',(#471,#472,#474,#475));
#477=FACE_OUTER_BOUND('',#476,.F.);
#479=CARTESIAN_POINT('',(3.1E-1,-3.E0,2.5E0));
#480=DIRECTION('',(1.E0,0.E0,0.E0));
#481=DIRECTION('',(0.E0,0.E0,-1.E0));
#482=AXIS2_PLACEMENT_3D('',#479,#480,#481);
#483=PLANE('',#482);
#484=ORIENTED_EDGE('',*,*,#473,.F.);
#485=ORIENTED_EDGE('',*,*,#442,.F.);
#486=EDGE_LOOP('',(#484,#485));
#487=FACE_OUTER_BOUND('',#486,.F.);
#489=ORIENTED_EDGE('',*,*,#488,.T.);
#491=ORIENTED_EDGE('',*,*,#490,.T.);
#492=EDGE_LOOP('',(#489,#491));
#493=FACE_BOUND('',#492,.F.);
#495=CARTESIAN_POINT('',(0.E0,0.E0,0.E0));
#496=DIRECTION('',(-1.E0,0.E0,0.E0));
#497=DIRECTION('',(0.E0,0.E0,-1.E0));
#498=AXIS2_PLACEMENT_3D('',#495,#496,#497);
#499=CYLINDRICAL_SURFACE('',#498,1.25E0);
#500=ORIENTED_EDGE('',*,*,#488,.F.);
#502=ORIENTED_EDGE('',*,*,#501,.T.);
#504=ORIENTED_EDGE('',*,*,#503,.F.);
#506=ORIENTED_EDGE('',*,*,#505,.F.);
#507=EDGE_LOOP('',(#500,#502,#504,#506));
#508=FACE_OUTER_BOUND('',#507,.F.);
#510=CARTESIAN_POINT('',(0.E0,0.E0,0.E0));
#511=DIRECTION('',(-1.E0,0.E0,0.E0));
#512=DIRECTION('',(0.E0,0.E0,-1.E0));
#513=AXIS2_PLACEMENT_3D('',#510,#511,#512);
#514=CYLINDRICAL_SURFACE('',#513,1.25E0);
#515=ORIENTED_EDGE('',*,*,#490,.F.);
#516=ORIENTED_EDGE('',*,*,#505,.T.);
#518=ORIENTED_EDGE('',*,*,#517,.F.);
#519=ORIENTED_EDGE('',*,*,#501,.F.);
#520=EDGE_LOOP('',(#515,#516,#518,#519));
#521=FACE_OUTER_BOUND('',#520,.F.);
#523=CARTESIAN_POINT('',(5.E-1,0.E0,0.E0));
#524=DIRECTION('',(-1.E0,0.E0,0.E0));
#525=DIRECTION('',(0.E0,0.E0,-1.E0));
#526=AXIS2_PLACEMENT_3D('',#523,#524,#525);
#527=PLANE('',#526);
#528=ORIENTED_EDGE('',*,*,#503,.T.);
#529=ORIENTED_EDGE('',*,*,#517,.T.);
#530=EDGE_LOOP('',(#528,#529));
#531=FACE_OUTER_BOUND('',#530,.F.);
#533=CARTESIAN_POINT('',(4.1E0,0.E0,0.E0));
#534=DIRECTION('',(1.E0,0.E0,0.E0));
#535=DIRECTION('',(0.E0,-1.E0,0.E0));
#536=AXIS2_PLACEMENT_3D('',#533,#534,#535);
#537=CYLINDRICAL_SURFACE('',#536,1.25E0);
#538=ORIENTED_EDGE('',*,*,#459,.F.);
#540=ORIENTED_EDGE('',*,*,#539,.T.);
#542=ORIENTED_EDGE('',*,*,#541,.T.);
#544=ORIENTED_EDGE('',*,*,#543,.F.);
#545=EDGE_LOOP('',(#538,#540,#542,#544));
#546=FACE_OUTER_BOUND('',#545,.F.);
#548=CARTESIAN_POINT('',(4.1E0,0.E0,0.E0));
#549=DIRECTION('',(1.E0,0.E0,0.E0));
#550=DIRECTION('',(0.E0,-1.E0,0.E0));
#551=AXIS2_PLACEMENT_3D('',#548,#549,#550);
#552=CYLINDRICAL_SURFACE('',#551,1.25E0);
#553=ORIENTED_EDGE('',*,*,#461,.F.);
#554=ORIENTED_EDGE('',*,*,#543,.T.);
#556=ORIENTED_EDGE('',*,*,#555,.T.);
#557=ORIENTED_EDGE('',*,*,#539,.F.);
#558=EDGE_LOOP('',(#553,#554,#556,#557));
#559=FACE_OUTER_BOUND('',#558,.F.);
#561=CARTESIAN_POINT('',(3.6E0,0.E0,0.E0));
#562=DIRECTION('',(1.E0,0.E0,0.E0));
#563=DIRECTION('',(0.E0,-1.E0,0.E0));
#564=AXIS2_PLACEMENT_3D('',#561,#562,#563);
#565=PLANE('',#564);
#566=ORIENTED_EDGE('',*,*,#541,.F.);
#567=ORIENTED_EDGE('',*,*,#555,.F.);
#568=EDGE_LOOP('',(#566,#567));
#569=FACE_OUTER_BOUND('',#568,.F.);
#571=CLOSED_SHELL('',(#448,#465,#478,#494,#509,#522,#532,#547,#560,#570));
#572=MANIFOLD_SOLID_BREP('',#571);
#574=DIMENSIONAL_EXPONENTS(0.E0,0.E0,0.E0,0.E0,0.E0,0.E0,0.E0);
#576=PLANE_ANGLE_MEASURE_WITH_UNIT(PLANE_ANGLE_MEASURE(1.745329251994E-2),#575);
#577=(CONVERSION_BASED_UNIT('DEGREE',#576)NAMED_UNIT(*)PLANE_ANGLE_UNIT());
#579=UNCERTAINTY_MEASURE_WITH_UNIT(LENGTH_MEASURE(3.406018001184E-4),#573,
'closure',
'Maximum model space distance between geometric entities at asserted connectivities');
#582=APPLICATION_CONTEXT(
'CONFIGURATION CONTROLLED 3D DESIGNS OF MECHANICAL PARTS AND ASSEMBLIES');
#583=APPLICATION_PROTOCOL_DEFINITION('international standard',
'config_control_design',1994,#582);
#584=DESIGN_CONTEXT('',#582,'design');
#585=MECHANICAL_CONTEXT('',#582,'mechanical');
#586=PRODUCT('2035-XX-A1','2035-XX-A1','NOT SPECIFIED',(#585));
#587=PRODUCT_DEFINITION_FORMATION_WITH_SPECIFIED_SOURCE('3','LAST_VERSION',#586,
.MADE.);
#591=PRODUCT_CATEGORY('part','');
#592=PRODUCT_RELATED_PRODUCT_CATEGORY('detail','',(#586));
#593=PRODUCT_CATEGORY_RELATIONSHIP('','',#591,#592);
#594=SECURITY_CLASSIFICATION_LEVEL('unclassified');
#595=SECURITY_CLASSIFICATION('','',#594);
#596=CC_DESIGN_SECURITY_CLASSIFICATION(#595,(#587));
#597=APPROVAL_STATUS('approved');
#598=APPROVAL(#597,'');
#599=CC_DESIGN_APPROVAL(#598,(#595,#587,#588));
#600=CALENDAR_DATE(112,3,8);
#601=COORDINATED_UNIVERSAL_TIME_OFFSET(7,0,.BEHIND.);
#602=LOCAL_TIME(11,2,2.6E1,#601);
#603=DATE_AND_TIME(#600,#602);
#604=APPROVAL_DATE_TIME(#603,#598);
#605=DATE_TIME_ROLE('creation_date');
#606=CC_DESIGN_DATE_AND_TIME_ASSIGNMENT(#603,#605,(#588));
#607=DATE_TIME_ROLE('classification_date');
#608=CC_DESIGN_DATE_AND_TIME_ASSIGNMENT(#603,#607,(#595));
#609=PERSON('UNSPECIFIED','UNSPECIFIED',$,$,$,$);
#610=ORGANIZATION('UNSPECIFIED','UNSPECIFIED','UNSPECIFIED');
#611=PERSON_AND_ORGANIZATION(#609,#610);
#612=APPROVAL_ROLE('approver');
#613=APPROVAL_PERSON_ORGANIZATION(#611,#598,#612);
#614=PERSON_AND_ORGANIZATION_ROLE('creator');
#615=CC_DESIGN_PERSON_AND_ORGANIZATION_ASSIGNMENT(#611,#614,(#587,#588));
#616=PERSON_AND_ORGANIZATION_ROLE('design_supplier');
#617=CC_DESIGN_PERSON_AND_ORGANIZATION_ASSIGNMENT(#611,#616,(#587));
#618=PERSON_AND_ORGANIZATION_ROLE('classification_officer');
#619=CC_DESIGN_PERSON_AND_ORGANIZATION_ASSIGNMENT(#611,#618,(#595));
#620=PERSON_AND_ORGANIZATION_ROLE('design_owner');
#621=CC_DESIGN_PERSON_AND_ORGANIZATION_ASSIGNMENT(#611,#620,(#586));
#5=CIRCLE('',#4,2.5E0);
#10=CIRCLE('',#9,2.5E0);
#15=CIRCLE('',#14,1.25E0);
#20=CIRCLE('',#19,1.25E0);
#25=CIRCLE('',#24,2.5E0);
#34=CIRCLE('',#33,1.25E0);
#39=CIRCLE('',#38,1.25E0);
#44=CIRCLE('',#43,2.5E0);
#78=EDGE_CURVE('',#59,#60,#5,.T.);
#80=EDGE_CURVE('',#60,#59,#10,.T.);
#84=EDGE_CURVE('',#67,#68,#15,.T.);
#86=EDGE_CURVE('',#68,#67,#20,.T.);
#90=ADVANCED_FACE('',(#83,#89),#77,.F.);
#96=EDGE_CURVE('',#63,#64,#25,.T.);
#98=EDGE_CURVE('',#60,#64,#48,.T.);
#101=EDGE_CURVE('',#59,#63,#29,.T.);
#105=ADVANCED_FACE('',(#104),#95,.T.);
#112=EDGE_CURVE('',#64,#63,#44,.T.);
#116=EDGE_CURVE('',#71,#72,#34,.T.);
#118=EDGE_CURVE('',#72,#71,#39,.T.);
#122=ADVANCED_FACE('',(#115,#121),#110,.F.);
#134=ADVANCED_FACE('',(#133),#127,.T.);
#141=EDGE_CURVE('',#67,#71,#52,.T.);
#144=EDGE_CURVE('',#68,#72,#56,.T.);
#148=ADVANCED_FACE('',(#147),#139,.F.);
#160=ADVANCED_FACE('',(#159),#153,.F.);
#167=CIRCLE('',#166,2.5E0);
#172=CIRCLE('',#171,2.5E0);
#177=CIRCLE('',#176,1.25E0);
#182=CIRCLE('',#181,1.25E0);
#187=CIRCLE('',#186,2.5E0);
#196=CIRCLE('',#195,1.25E0);
#201=CIRCLE('',#200,1.25E0);
#206=CIRCLE('',#205,2.5E0);
#240=EDGE_CURVE('',#221,#222,#167,.T.);
#242=EDGE_CURVE('',#222,#221,#172,.T.);
#246=EDGE_CURVE('',#229,#230,#177,.T.);
#248=EDGE_CURVE('',#230,#229,#182,.T.);
#252=ADVANCED_FACE('',(#245,#251),#239,.T.);
#258=EDGE_CURVE('',#225,#226,#187,.T.);
#260=EDGE_CURVE('',#226,#221,#191,.T.);
#263=EDGE_CURVE('',#225,#222,#210,.T.);
#267=ADVANCED_FACE('',(#266),#257,.T.);
#274=EDGE_CURVE('',#226,#225,#206,.T.);
#278=EDGE_CURVE('',#233,#234,#196,.T.);
#280=EDGE_CURVE('',#234,#233,#201,.T.);
#284=ADVANCED_FACE('',(#277,#283),#272,.F.);
#296=ADVANCED_FACE('',(#295),#289,.T.);
#303=EDGE_CURVE('',#229,#233,#214,.T.);
#306=EDGE_CURVE('',#230,#234,#218,.T.);
#310=ADVANCED_FACE('',(#309),#301,.F.);
#322=ADVANCED_FACE('',(#321),#315,.F.);
#329=CIRCLE('',#328,2.5E0);
#334=CIRCLE('',#333,2.5E0);
#343=CIRCLE('',#342,1.25E0);
#348=CIRCLE('',#347,1.25E0);
#353=CIRCLE('',#352,2.5E0);
#358=CIRCLE('',#357,2.5E0);
#367=CIRCLE('',#366,1.25E0);
#372=CIRCLE('',#371,1.25E0);
#385=CIRCLE('',#384,1.25E0);
#390=CIRCLE('',#389,1.25E0);
#403=CIRCLE('',#402,1.25E0);
#408=CIRCLE('',#407,1.25E0);
#438=EDGE_CURVE('',#412,#411,#329,.T.);
#440=EDGE_CURVE('',#416,#411,#362,.T.);
#442=EDGE_CURVE('',#416,#415,#334,.T.);
#444=EDGE_CURVE('',#415,#412,#338,.T.);
#448=ADVANCED_FACE('',(#447),#437,.T.);
#454=EDGE_CURVE('',#411,#412,#353,.T.);
#459=EDGE_CURVE('',#427,#428,#343,.T.);
#461=EDGE_CURVE('',#428,#427,#348,.T.);
#465=ADVANCED_FACE('',(#458,#464),#453,.F.);
#473=EDGE_CURVE('',#415,#416,#358,.T.);
#478=ADVANCED_FACE('',(#477),#470,.T.);
#488=EDGE_CURVE('',#431,#432,#367,.T.);
#490=EDGE_CURVE('',#432,#431,#372,.T.);
#494=ADVANCED_FACE('',(#487,#493),#483,.F.);
#501=EDGE_CURVE('',#431,#424,#376,.T.);
#503=EDGE_CURVE('',#423,#424,#385,.T.);
#505=EDGE_CURVE('',#432,#423,#380,.T.);
#509=ADVANCED_FACE('',(#508),#499,.F.);
#517=EDGE_CURVE('',#424,#423,#390,.T.);
#522=ADVANCED_FACE('',(#521),#514,.F.);
#532=ADVANCED_FACE('',(#531),#527,.T.);
#539=EDGE_CURVE('',#427,#419,#394,.T.);
#541=EDGE_CURVE('',#419,#420,#403,.T.);
#543=EDGE_CURVE('',#428,#420,#398,.T.);
#547=ADVANCED_FACE('',(#546),#537,.F.);
#555=EDGE_CURVE('',#420,#419,#408,.T.);
#560=ADVANCED_FACE('',(#559),#552,.F.);
#570=ADVANCED_FACE('',(#569),#565,.T.);
#573=(LENGTH_UNIT()NAMED_UNIT(*)SI_UNIT(.MILLI.,.METRE.));
#575=(NAMED_UNIT(*)PLANE_ANGLE_UNIT()SI_UNIT($,.RADIAN.));
#578=(NAMED_UNIT(*)SI_UNIT($,.STERADIAN.)SOLID_ANGLE_UNIT());
#580=(GEOMETRIC_REPRESENTATION_CONTEXT(3)GLOBAL_UNCERTAINTY_ASSIGNED_CONTEXT((
#579))GLOBAL_UNIT_ASSIGNED_CONTEXT((#573,#577,#578))REPRESENTATION_CONTEXT
('ID1','3'));
#581=ADVANCED_BREP_SHAPE_REPRESENTATION('',(#162,#324,#572),#580);
#588=PRODUCT_DEFINITION('design','',#587,#584);
#589=PRODUCT_DEFINITION_SHAPE('','SHAPE FOR 2035-XX-A1.',#588);
#590=SHAPE_DEFINITION_REPRESENTATION(#589,#581);
ENDSEC;
END-ISO-10303-21;
