ISO-10303-21;
HEADER;
FILE_DESCRIPTION((''),'2;1');
FILE_NAME('33262W','2013-08-02T',('MaxM'),('Bourns, Inc.'),
'PRO/ENGINEER BY PARAMETRIC TECHNOLOGY CORPORATION, 2012230',
'PRO/ENGINEER BY PARAMETRIC TECHNOLOGY CORPORATION, 2012230','');
FILE_SCHEMA(('CONFIG_CONTROL_DESIGN'));
ENDSEC;
DATA;
#1=DIRECTION('',(0.E0,-1.E0,0.E0));
#2=VECTOR('',#1,2.5E-1);
#3=CARTESIAN_POINT('',(0.E0,0.E0,0.E0));
#4=LINE('',#3,#2);
#5=DIRECTION('',(1.E0,0.E0,0.E0));
#6=VECTOR('',#5,2.5E-1);
#7=CARTESIAN_POINT('',(0.E0,-2.5E-1,0.E0));
#8=LINE('',#7,#6);
#9=DIRECTION('',(0.E0,1.E0,0.E0));
#10=VECTOR('',#9,2.5E-1);
#11=CARTESIAN_POINT('',(2.5E-1,-2.5E-1,0.E0));
#12=LINE('',#11,#10);
#13=DIRECTION('',(-1.E0,0.E0,0.E0));
#14=VECTOR('',#13,2.5E-1);
#15=CARTESIAN_POINT('',(2.5E-1,0.E0,0.E0));
#16=LINE('',#15,#14);
#17=DIRECTION('',(0.E0,0.E0,1.E0));
#18=VECTOR('',#17,1.7E-1);
#19=CARTESIAN_POINT('',(0.E0,0.E0,0.E0));
#20=LINE('',#19,#18);
#21=DIRECTION('',(0.E0,0.E0,1.E0));
#22=VECTOR('',#21,1.7E-1);
#23=CARTESIAN_POINT('',(2.5E-1,0.E0,0.E0));
#24=LINE('',#23,#22);
#25=DIRECTION('',(0.E0,0.E0,1.E0));
#26=VECTOR('',#25,1.7E-1);
#27=CARTESIAN_POINT('',(2.5E-1,-2.5E-1,0.E0));
#28=LINE('',#27,#26);
#29=CARTESIAN_POINT('',(2.5E-1,-4.E-2,6.E-2));
#30=DIRECTION('',(1.E0,0.E0,0.E0));
#31=DIRECTION('',(0.E0,0.E0,-1.E0));
#32=AXIS2_PLACEMENT_3D('',#29,#30,#31);
#34=CARTESIAN_POINT('',(2.5E-1,-4.E-2,6.E-2));
#35=DIRECTION('',(1.E0,0.E0,0.E0));
#36=DIRECTION('',(0.E0,0.E0,1.E0));
#37=AXIS2_PLACEMENT_3D('',#34,#35,#36);
#39=DIRECTION('',(0.E0,0.E0,1.E0));
#40=VECTOR('',#39,1.7E-1);
#41=CARTESIAN_POINT('',(0.E0,-2.5E-1,0.E0));
#42=LINE('',#41,#40);
#43=CARTESIAN_POINT('',(3.E-2,-2.5E-1,1.3E-1));
#44=DIRECTION('',(0.E0,-1.E0,0.E0));
#45=DIRECTION('',(1.E0,0.E0,0.E0));
#46=AXIS2_PLACEMENT_3D('',#43,#44,#45);
#48=CARTESIAN_POINT('',(3.E-2,-2.5E-1,1.3E-1));
#49=DIRECTION('',(0.E0,-1.E0,0.E0));
#50=DIRECTION('',(-1.E0,0.E0,0.E0));
#51=AXIS2_PLACEMENT_3D('',#48,#49,#50);
#53=CARTESIAN_POINT('',(2.224003294034E-1,-2.5E-1,1.3E-1));
#54=DIRECTION('',(0.E0,-1.E0,0.E0));
#55=DIRECTION('',(1.E0,0.E0,0.E0));
#56=AXIS2_PLACEMENT_3D('',#53,#54,#55);
#58=CARTESIAN_POINT('',(2.224003294034E-1,-2.5E-1,1.3E-1));
#59=DIRECTION('',(0.E0,-1.E0,0.E0));
#60=DIRECTION('',(-1.E0,0.E0,0.E0));
#61=AXIS2_PLACEMENT_3D('',#58,#59,#60);
#63=CARTESIAN_POINT('',(1.3E-1,-2.5E-1,3.E-2));
#64=DIRECTION('',(0.E0,-1.E0,0.E0));
#65=DIRECTION('',(1.E0,0.E0,0.E0));
#66=AXIS2_PLACEMENT_3D('',#63,#64,#65);
#68=CARTESIAN_POINT('',(1.3E-1,-2.5E-1,3.E-2));
#69=DIRECTION('',(0.E0,-1.E0,0.E0));
#70=DIRECTION('',(-1.E0,0.E0,0.E0));
#71=AXIS2_PLACEMENT_3D('',#68,#69,#70);
#73=DIRECTION('',(0.E0,-1.E0,0.E0));
#74=VECTOR('',#73,2.5E-1);
#75=CARTESIAN_POINT('',(0.E0,0.E0,1.7E-1));
#76=LINE('',#75,#74);
#77=DIRECTION('',(-1.E0,0.E0,0.E0));
#78=VECTOR('',#77,2.5E-1);
#79=CARTESIAN_POINT('',(2.5E-1,0.E0,1.7E-1));
#80=LINE('',#79,#78);
#81=DIRECTION('',(0.E0,1.E0,0.E0));
#82=VECTOR('',#81,2.5E-1);
#83=CARTESIAN_POINT('',(2.5E-1,-2.5E-1,1.7E-1));
#84=LINE('',#83,#82);
#85=DIRECTION('',(1.E0,0.E0,0.E0));
#86=VECTOR('',#85,2.5E-1);
#87=CARTESIAN_POINT('',(0.E0,-2.5E-1,1.7E-1));
#88=LINE('',#87,#86);
#89=DIRECTION('',(0.E0,-1.E0,0.E0));
#90=VECTOR('',#89,1.88E-1);
#91=CARTESIAN_POINT('',(3.810168679968E-2,-2.5E-1,1.3E-1));
#92=LINE('',#91,#90);
#93=DIRECTION('',(0.E0,-1.E0,0.E0));
#94=VECTOR('',#93,1.88E-1);
#95=CARTESIAN_POINT('',(2.189831320032E-2,-2.5E-1,1.3E-1));
#96=LINE('',#95,#94);
#97=CARTESIAN_POINT('',(3.E-2,-4.38E-1,1.3E-1));
#98=DIRECTION('',(0.E0,-1.E0,0.E0));
#99=DIRECTION('',(1.E0,0.E0,0.E0));
#100=AXIS2_PLACEMENT_3D('',#97,#98,#99);
#102=CARTESIAN_POINT('',(3.E-2,-4.38E-1,1.3E-1));
#103=DIRECTION('',(0.E0,-1.E0,0.E0));
#104=DIRECTION('',(-1.E0,0.E0,0.E0));
#105=AXIS2_PLACEMENT_3D('',#102,#103,#104);
#107=CARTESIAN_POINT('',(2.224003294034E-1,-4.38E-1,1.3E-1));
#108=DIRECTION('',(0.E0,-1.E0,0.E0));
#109=DIRECTION('',(1.E0,0.E0,0.E0));
#110=AXIS2_PLACEMENT_3D('',#107,#108,#109);
#112=CARTESIAN_POINT('',(2.224003294034E-1,-4.38E-1,1.3E-1));
#113=DIRECTION('',(0.E0,-1.E0,0.E0));
#114=DIRECTION('',(-1.E0,0.E0,0.E0));
#115=AXIS2_PLACEMENT_3D('',#112,#113,#114);
#117=CARTESIAN_POINT('',(1.3E-1,-4.38E-1,3.E-2));
#118=DIRECTION('',(0.E0,-1.E0,0.E0));
#119=DIRECTION('',(1.E0,0.E0,0.E0));
#120=AXIS2_PLACEMENT_3D('',#117,#118,#119);
#122=CARTESIAN_POINT('',(1.3E-1,-4.38E-1,3.E-2));
#123=DIRECTION('',(0.E0,-1.E0,0.E0));
#124=DIRECTION('',(-1.E0,0.E0,0.E0));
#125=AXIS2_PLACEMENT_3D('',#122,#123,#124);
#127=DIRECTION('',(0.E0,-1.E0,0.E0));
#128=VECTOR('',#127,1.88E-1);
#129=CARTESIAN_POINT('',(2.305020162031E-1,-2.5E-1,1.3E-1));
#130=LINE('',#129,#128);
#131=DIRECTION('',(0.E0,-1.E0,0.E0));
#132=VECTOR('',#131,1.88E-1);
#133=CARTESIAN_POINT('',(2.142986426037E-1,-2.5E-1,1.3E-1));
#134=LINE('',#133,#132);
#135=DIRECTION('',(0.E0,-1.E0,0.E0));
#136=VECTOR('',#135,1.88E-1);
#137=CARTESIAN_POINT('',(1.381016867997E-1,-2.5E-1,3.E-2));
#138=LINE('',#137,#136);
#139=DIRECTION('',(0.E0,-1.E0,0.E0));
#140=VECTOR('',#139,1.88E-1);
#141=CARTESIAN_POINT('',(1.218983132003E-1,-2.5E-1,3.E-2));
#142=LINE('',#141,#140);
#143=CARTESIAN_POINT('',(2.65E-1,-4.E-2,6.E-2));
#144=DIRECTION('',(1.E0,0.E0,0.E0));
#145=DIRECTION('',(0.E0,0.E0,-1.E0));
#146=AXIS2_PLACEMENT_3D('',#143,#144,#145);
#148=DIRECTION('',(1.E0,0.E0,0.E0));
#149=VECTOR('',#148,2.5E-2);
#150=CARTESIAN_POINT('',(2.65E-1,-3.E-2,2.645898033750E-2));
#151=LINE('',#150,#149);
#152=DIRECTION('',(1.E0,0.E0,0.E0));
#153=VECTOR('',#152,2.5E-2);
#154=CARTESIAN_POINT('',(2.65E-1,-3.E-2,9.354101966250E-2));
#155=LINE('',#154,#153);
#156=CARTESIAN_POINT('',(2.65E-1,-4.E-2,6.E-2));
#157=DIRECTION('',(1.E0,0.E0,0.E0));
#158=DIRECTION('',(0.E0,2.857142857143E-1,9.583148474999E-1));
#159=AXIS2_PLACEMENT_3D('',#156,#157,#158);
#161=DIRECTION('',(1.E0,0.E0,0.E0));
#162=VECTOR('',#161,1.5E-2);
#163=CARTESIAN_POINT('',(2.5E-1,-4.E-2,2.5E-2));
#164=LINE('',#163,#162);
#165=DIRECTION('',(0.E0,0.E0,1.E0));
#166=VECTOR('',#165,6.708203932499E-2);
#167=CARTESIAN_POINT('',(2.65E-1,-5.E-2,2.645898033750E-2));
#168=LINE('',#167,#166);
#169=DIRECTION('',(1.E0,0.E0,0.E0));
#170=VECTOR('',#169,2.5E-2);
#171=CARTESIAN_POINT('',(2.65E-1,-5.E-2,9.354101966250E-2));
#172=LINE('',#171,#170);
#173=DIRECTION('',(1.E0,0.E0,0.E0));
#174=VECTOR('',#173,2.5E-2);
#175=CARTESIAN_POINT('',(2.65E-1,-5.E-2,2.645898033750E-2));
#176=LINE('',#175,#174);
#177=CARTESIAN_POINT('',(2.65E-1,-4.E-2,6.E-2));
#178=DIRECTION('',(1.E0,0.E0,0.E0));
#179=DIRECTION('',(0.E0,-2.857142857143E-1,-9.583148474999E-1));
#180=AXIS2_PLACEMENT_3D('',#177,#178,#179);
#182=DIRECTION('',(1.E0,0.E0,0.E0));
#183=VECTOR('',#182,1.5E-2);
#184=CARTESIAN_POINT('',(2.5E-1,-4.E-2,9.5E-2));
#185=LINE('',#184,#183);
#186=CARTESIAN_POINT('',(2.65E-1,-4.E-2,6.E-2));
#187=DIRECTION('',(1.E0,0.E0,0.E0));
#188=DIRECTION('',(0.E0,0.E0,1.E0));
#189=AXIS2_PLACEMENT_3D('',#186,#187,#188);
#191=DIRECTION('',(0.E0,0.E0,-1.E0));
#192=VECTOR('',#191,6.708203932499E-2);
#193=CARTESIAN_POINT('',(2.9E-1,-5.E-2,9.354101966250E-2));
#194=LINE('',#193,#192);
#195=CARTESIAN_POINT('',(2.9E-1,-4.E-2,6.E-2));
#196=DIRECTION('',(1.E0,0.E0,0.E0));
#197=DIRECTION('',(0.E0,-2.857142857143E-1,9.583148474999E-1));
#198=AXIS2_PLACEMENT_3D('',#195,#196,#197);
#200=DIRECTION('',(0.E0,0.E0,-1.E0));
#201=VECTOR('',#200,6.708203932499E-2);
#202=CARTESIAN_POINT('',(2.9E-1,-3.E-2,9.354101966250E-2));
#203=LINE('',#202,#201);
#204=CARTESIAN_POINT('',(2.9E-1,-4.E-2,6.E-2));
#205=DIRECTION('',(1.E0,0.E0,0.E0));
#206=DIRECTION('',(0.E0,2.857142857143E-1,-9.583148474999E-1));
#207=AXIS2_PLACEMENT_3D('',#204,#205,#206);
#209=DIRECTION('',(0.E0,0.E0,1.E0));
#210=VECTOR('',#209,6.708203932499E-2);
#211=CARTESIAN_POINT('',(2.65E-1,-3.E-2,2.645898033750E-2));
#212=LINE('',#211,#210);
#213=CARTESIAN_POINT('',(0.E0,0.E0,0.E0));
#214=CARTESIAN_POINT('',(0.E0,-2.5E-1,0.E0));
#215=VERTEX_POINT('',#213);
#216=VERTEX_POINT('',#214);
#217=CARTESIAN_POINT('',(2.5E-1,-2.5E-1,0.E0));
#218=VERTEX_POINT('',#217);
#219=CARTESIAN_POINT('',(2.5E-1,0.E0,0.E0));
#220=VERTEX_POINT('',#219);
#221=CARTESIAN_POINT('',(0.E0,0.E0,1.7E-1));
#222=CARTESIAN_POINT('',(0.E0,-2.5E-1,1.7E-1));
#223=VERTEX_POINT('',#221);
#224=VERTEX_POINT('',#222);
#225=CARTESIAN_POINT('',(2.5E-1,-2.5E-1,1.7E-1));
#226=VERTEX_POINT('',#225);
#227=CARTESIAN_POINT('',(2.5E-1,0.E0,1.7E-1));
#228=VERTEX_POINT('',#227);
#229=CARTESIAN_POINT('',(3.810168679968E-2,-4.38E-1,1.3E-1));
#230=CARTESIAN_POINT('',(2.189831320032E-2,-4.38E-1,1.3E-1));
#231=VERTEX_POINT('',#229);
#232=VERTEX_POINT('',#230);
#233=CARTESIAN_POINT('',(2.305020162031E-1,-4.38E-1,1.3E-1));
#234=CARTESIAN_POINT('',(2.142986426037E-1,-4.38E-1,1.3E-1));
#235=VERTEX_POINT('',#233);
#236=VERTEX_POINT('',#234);
#237=CARTESIAN_POINT('',(1.381016867997E-1,-4.38E-1,3.E-2));
#238=CARTESIAN_POINT('',(1.218983132003E-1,-4.38E-1,3.E-2));
#239=VERTEX_POINT('',#237);
#240=VERTEX_POINT('',#238);
#241=CARTESIAN_POINT('',(3.810168679968E-2,-2.5E-1,1.3E-1));
#242=CARTESIAN_POINT('',(2.189831320032E-2,-2.5E-1,1.3E-1));
#243=VERTEX_POINT('',#241);
#244=VERTEX_POINT('',#242);
#245=CARTESIAN_POINT('',(2.305020162031E-1,-2.5E-1,1.3E-1));
#246=CARTESIAN_POINT('',(2.142986426037E-1,-2.5E-1,1.3E-1));
#247=VERTEX_POINT('',#245);
#248=VERTEX_POINT('',#246);
#249=CARTESIAN_POINT('',(1.381016867997E-1,-2.5E-1,3.E-2));
#250=CARTESIAN_POINT('',(1.218983132003E-1,-2.5E-1,3.E-2));
#251=VERTEX_POINT('',#249);
#252=VERTEX_POINT('',#250);
#253=CARTESIAN_POINT('',(2.5E-1,-4.E-2,2.5E-2));
#254=CARTESIAN_POINT('',(2.5E-1,-4.E-2,9.5E-2));
#255=VERTEX_POINT('',#253);
#256=VERTEX_POINT('',#254);
#257=CARTESIAN_POINT('',(2.9E-1,-5.E-2,9.354101966250E-2));
#258=CARTESIAN_POINT('',(2.9E-1,-5.E-2,2.645898033750E-2));
#259=VERTEX_POINT('',#257);
#260=VERTEX_POINT('',#258);
#261=CARTESIAN_POINT('',(2.9E-1,-3.E-2,9.354101966250E-2));
#262=CARTESIAN_POINT('',(2.9E-1,-3.E-2,2.645898033750E-2));
#263=VERTEX_POINT('',#261);
#264=VERTEX_POINT('',#262);
#265=CARTESIAN_POINT('',(2.65E-1,-4.E-2,2.5E-2));
#266=CARTESIAN_POINT('',(2.65E-1,-3.E-2,2.645898033750E-2));
#267=VERTEX_POINT('',#265);
#268=VERTEX_POINT('',#266);
#269=CARTESIAN_POINT('',(2.65E-1,-3.E-2,9.354101966250E-2));
#270=CARTESIAN_POINT('',(2.65E-1,-4.E-2,9.5E-2));
#271=VERTEX_POINT('',#269);
#272=VERTEX_POINT('',#270);
#273=CARTESIAN_POINT('',(2.65E-1,-5.E-2,9.354101966250E-2));
#274=VERTEX_POINT('',#273);
#275=CARTESIAN_POINT('',(2.65E-1,-5.E-2,2.645898033750E-2));
#276=VERTEX_POINT('',#275);
#277=CARTESIAN_POINT('',(0.E0,0.E0,0.E0));
#278=DIRECTION('',(0.E0,0.E0,1.E0));
#279=DIRECTION('',(1.E0,0.E0,0.E0));
#280=AXIS2_PLACEMENT_3D('',#277,#278,#279);
#281=PLANE('',#280);
#283=ORIENTED_EDGE('',*,*,#282,.T.);
#285=ORIENTED_EDGE('',*,*,#284,.T.);
#287=ORIENTED_EDGE('',*,*,#286,.T.);
#289=ORIENTED_EDGE('',*,*,#288,.T.);
#290=EDGE_LOOP('',(#283,#285,#287,#289));
#291=FACE_OUTER_BOUND('',#290,.F.);
#292=ADVANCED_FACE('',(#291),#281,.F.);
#293=CARTESIAN_POINT('',(0.E0,0.E0,0.E0));
#294=DIRECTION('',(-1.E0,0.E0,0.E0));
#295=DIRECTION('',(0.E0,-1.E0,0.E0));
#296=AXIS2_PLACEMENT_3D('',#293,#294,#295);
#297=PLANE('',#296);
#298=ORIENTED_EDGE('',*,*,#282,.F.);
#300=ORIENTED_EDGE('',*,*,#299,.T.);
#302=ORIENTED_EDGE('',*,*,#301,.T.);
#304=ORIENTED_EDGE('',*,*,#303,.F.);
#305=EDGE_LOOP('',(#298,#300,#302,#304));
#306=FACE_OUTER_BOUND('',#305,.F.);
#307=ADVANCED_FACE('',(#306),#297,.T.);
#308=CARTESIAN_POINT('',(2.5E-1,0.E0,0.E0));
#309=DIRECTION('',(0.E0,1.E0,0.E0));
#310=DIRECTION('',(-1.E0,0.E0,0.E0));
#311=AXIS2_PLACEMENT_3D('',#308,#309,#310);
#312=PLANE('',#311);
#313=ORIENTED_EDGE('',*,*,#288,.F.);
#315=ORIENTED_EDGE('',*,*,#314,.T.);
#317=ORIENTED_EDGE('',*,*,#316,.T.);
#318=ORIENTED_EDGE('',*,*,#299,.F.);
#319=EDGE_LOOP('',(#313,#315,#317,#318));
#320=FACE_OUTER_BOUND('',#319,.F.);
#321=ADVANCED_FACE('',(#320),#312,.T.);
#322=CARTESIAN_POINT('',(2.5E-1,-2.5E-1,0.E0));
#323=DIRECTION('',(1.E0,0.E0,0.E0));
#324=DIRECTION('',(0.E0,1.E0,0.E0));
#325=AXIS2_PLACEMENT_3D('',#322,#323,#324);
#326=PLANE('',#325);
#327=ORIENTED_EDGE('',*,*,#286,.F.);
#329=ORIENTED_EDGE('',*,*,#328,.T.);
#331=ORIENTED_EDGE('',*,*,#330,.T.);
#332=ORIENTED_EDGE('',*,*,#314,.F.);
#333=EDGE_LOOP('',(#327,#329,#331,#332));
#334=FACE_OUTER_BOUND('',#333,.F.);
#336=ORIENTED_EDGE('',*,*,#335,.T.);
#338=ORIENTED_EDGE('',*,*,#337,.T.);
#339=EDGE_LOOP('',(#336,#338));
#340=FACE_BOUND('',#339,.F.);
#341=ADVANCED_FACE('',(#334,#340),#326,.T.);
#342=CARTESIAN_POINT('',(0.E0,-2.5E-1,0.E0));
#343=DIRECTION('',(0.E0,-1.E0,0.E0));
#344=DIRECTION('',(1.E0,0.E0,0.E0));
#345=AXIS2_PLACEMENT_3D('',#342,#343,#344);
#346=PLANE('',#345);
#347=ORIENTED_EDGE('',*,*,#284,.F.);
#348=ORIENTED_EDGE('',*,*,#303,.T.);
#350=ORIENTED_EDGE('',*,*,#349,.T.);
#351=ORIENTED_EDGE('',*,*,#328,.F.);
#352=EDGE_LOOP('',(#347,#348,#350,#351));
#353=FACE_OUTER_BOUND('',#352,.F.);
#355=ORIENTED_EDGE('',*,*,#354,.T.);
#357=ORIENTED_EDGE('',*,*,#356,.T.);
#358=EDGE_LOOP('',(#355,#357));
#359=FACE_BOUND('',#358,.F.);
#361=ORIENTED_EDGE('',*,*,#360,.T.);
#363=ORIENTED_EDGE('',*,*,#362,.T.);
#364=EDGE_LOOP('',(#361,#363));
#365=FACE_BOUND('',#364,.F.);
#367=ORIENTED_EDGE('',*,*,#366,.T.);
#369=ORIENTED_EDGE('',*,*,#368,.T.);
#370=EDGE_LOOP('',(#367,#369));
#371=FACE_BOUND('',#370,.F.);
#372=ADVANCED_FACE('',(#353,#359,#365,#371),#346,.T.);
#373=CARTESIAN_POINT('',(0.E0,0.E0,1.7E-1));
#374=DIRECTION('',(0.E0,0.E0,1.E0));
#375=DIRECTION('',(1.E0,0.E0,0.E0));
#376=AXIS2_PLACEMENT_3D('',#373,#374,#375);
#377=PLANE('',#376);
#378=ORIENTED_EDGE('',*,*,#301,.F.);
#379=ORIENTED_EDGE('',*,*,#316,.F.);
#380=ORIENTED_EDGE('',*,*,#330,.F.);
#381=ORIENTED_EDGE('',*,*,#349,.F.);
#382=EDGE_LOOP('',(#378,#379,#380,#381));
#383=FACE_OUTER_BOUND('',#382,.F.);
#384=ADVANCED_FACE('',(#383),#377,.T.);
#385=CARTESIAN_POINT('',(3.E-2,-2.5E-1,1.3E-1));
#386=DIRECTION('',(0.E0,-1.E0,0.E0));
#387=DIRECTION('',(1.E0,0.E0,0.E0));
#388=AXIS2_PLACEMENT_3D('',#385,#386,#387);
#389=CYLINDRICAL_SURFACE('',#388,8.101686799680E-3);
#390=ORIENTED_EDGE('',*,*,#354,.F.);
#392=ORIENTED_EDGE('',*,*,#391,.T.);
#394=ORIENTED_EDGE('',*,*,#393,.T.);
#396=ORIENTED_EDGE('',*,*,#395,.F.);
#397=EDGE_LOOP('',(#390,#392,#394,#396));
#398=FACE_OUTER_BOUND('',#397,.F.);
#399=ADVANCED_FACE('',(#398),#389,.T.);
#400=CARTESIAN_POINT('',(3.E-2,-2.5E-1,1.3E-1));
#401=DIRECTION('',(0.E0,-1.E0,0.E0));
#402=DIRECTION('',(1.E0,0.E0,0.E0));
#403=AXIS2_PLACEMENT_3D('',#400,#401,#402);
#404=CYLINDRICAL_SURFACE('',#403,8.101686799680E-3);
#405=ORIENTED_EDGE('',*,*,#356,.F.);
#406=ORIENTED_EDGE('',*,*,#395,.T.);
#408=ORIENTED_EDGE('',*,*,#407,.T.);
#409=ORIENTED_EDGE('',*,*,#391,.F.);
#410=EDGE_LOOP('',(#405,#406,#408,#409));
#411=FACE_OUTER_BOUND('',#410,.F.);
#412=ADVANCED_FACE('',(#411),#404,.T.);
#413=CARTESIAN_POINT('',(0.E0,-4.38E-1,0.E0));
#414=DIRECTION('',(0.E0,-1.E0,0.E0));
#415=DIRECTION('',(1.E0,0.E0,0.E0));
#416=AXIS2_PLACEMENT_3D('',#413,#414,#415);
#417=PLANE('',#416);
#418=ORIENTED_EDGE('',*,*,#393,.F.);
#419=ORIENTED_EDGE('',*,*,#407,.F.);
#420=EDGE_LOOP('',(#418,#419));
#421=FACE_OUTER_BOUND('',#420,.F.);
#422=ADVANCED_FACE('',(#421),#417,.T.);
#423=CARTESIAN_POINT('',(0.E0,-4.38E-1,0.E0));
#424=DIRECTION('',(0.E0,-1.E0,0.E0));
#425=DIRECTION('',(1.E0,0.E0,0.E0));
#426=AXIS2_PLACEMENT_3D('',#423,#424,#425);
#427=PLANE('',#426);
#429=ORIENTED_EDGE('',*,*,#428,.F.);
#431=ORIENTED_EDGE('',*,*,#430,.F.);
#432=EDGE_LOOP('',(#429,#431));
#433=FACE_OUTER_BOUND('',#432,.F.);
#434=ADVANCED_FACE('',(#433),#427,.T.);
#435=CARTESIAN_POINT('',(0.E0,-4.38E-1,0.E0));
#436=DIRECTION('',(0.E0,-1.E0,0.E0));
#437=DIRECTION('',(1.E0,0.E0,0.E0));
#438=AXIS2_PLACEMENT_3D('',#435,#436,#437);
#439=PLANE('',#438);
#441=ORIENTED_EDGE('',*,*,#440,.F.);
#443=ORIENTED_EDGE('',*,*,#442,.F.);
#444=EDGE_LOOP('',(#441,#443));
#445=FACE_OUTER_BOUND('',#444,.F.);
#446=ADVANCED_FACE('',(#445),#439,.T.);
#447=CARTESIAN_POINT('',(2.224003294034E-1,-2.5E-1,1.3E-1));
#448=DIRECTION('',(0.E0,-1.E0,0.E0));
#449=DIRECTION('',(1.E0,0.E0,0.E0));
#450=AXIS2_PLACEMENT_3D('',#447,#448,#449);
#451=CYLINDRICAL_SURFACE('',#450,8.101686799680E-3);
#452=ORIENTED_EDGE('',*,*,#360,.F.);
#454=ORIENTED_EDGE('',*,*,#453,.T.);
#455=ORIENTED_EDGE('',*,*,#428,.T.);
#457=ORIENTED_EDGE('',*,*,#456,.F.);
#458=EDGE_LOOP('',(#452,#454,#455,#457));
#459=FACE_OUTER_BOUND('',#458,.F.);
#460=ADVANCED_FACE('',(#459),#451,.T.);
#461=CARTESIAN_POINT('',(2.224003294034E-1,-2.5E-1,1.3E-1));
#462=DIRECTION('',(0.E0,-1.E0,0.E0));
#463=DIRECTION('',(1.E0,0.E0,0.E0));
#464=AXIS2_PLACEMENT_3D('',#461,#462,#463);
#465=CYLINDRICAL_SURFACE('',#464,8.101686799680E-3);
#466=ORIENTED_EDGE('',*,*,#362,.F.);
#467=ORIENTED_EDGE('',*,*,#456,.T.);
#468=ORIENTED_EDGE('',*,*,#430,.T.);
#469=ORIENTED_EDGE('',*,*,#453,.F.);
#470=EDGE_LOOP('',(#466,#467,#468,#469));
#471=FACE_OUTER_BOUND('',#470,.F.);
#472=ADVANCED_FACE('',(#471),#465,.T.);
#473=CARTESIAN_POINT('',(1.3E-1,-2.5E-1,3.E-2));
#474=DIRECTION('',(0.E0,-1.E0,0.E0));
#475=DIRECTION('',(1.E0,0.E0,0.E0));
#476=AXIS2_PLACEMENT_3D('',#473,#474,#475);
#477=CYLINDRICAL_SURFACE('',#476,8.101686799680E-3);
#478=ORIENTED_EDGE('',*,*,#366,.F.);
#480=ORIENTED_EDGE('',*,*,#479,.T.);
#481=ORIENTED_EDGE('',*,*,#440,.T.);
#483=ORIENTED_EDGE('',*,*,#482,.F.);
#484=EDGE_LOOP('',(#478,#480,#481,#483));
#485=FACE_OUTER_BOUND('',#484,.F.);
#486=ADVANCED_FACE('',(#485),#477,.T.);
#487=CARTESIAN_POINT('',(1.3E-1,-2.5E-1,3.E-2));
#488=DIRECTION('',(0.E0,-1.E0,0.E0));
#489=DIRECTION('',(1.E0,0.E0,0.E0));
#490=AXIS2_PLACEMENT_3D('',#487,#488,#489);
#491=CYLINDRICAL_SURFACE('',#490,8.101686799680E-3);
#492=ORIENTED_EDGE('',*,*,#368,.F.);
#493=ORIENTED_EDGE('',*,*,#482,.T.);
#494=ORIENTED_EDGE('',*,*,#442,.T.);
#495=ORIENTED_EDGE('',*,*,#479,.F.);
#496=EDGE_LOOP('',(#492,#493,#494,#495));
#497=FACE_OUTER_BOUND('',#496,.F.);
#498=ADVANCED_FACE('',(#497),#491,.T.);
#499=CARTESIAN_POINT('',(2.5E-1,-4.E-2,6.E-2));
#500=DIRECTION('',(1.E0,0.E0,0.E0));
#501=DIRECTION('',(0.E0,0.E0,-1.E0));
#502=AXIS2_PLACEMENT_3D('',#499,#500,#501);
#503=CYLINDRICAL_SURFACE('',#502,3.5E-2);
#505=ORIENTED_EDGE('',*,*,#504,.T.);
#507=ORIENTED_EDGE('',*,*,#506,.T.);
#509=ORIENTED_EDGE('',*,*,#508,.T.);
#511=ORIENTED_EDGE('',*,*,#510,.F.);
#513=ORIENTED_EDGE('',*,*,#512,.T.);
#515=ORIENTED_EDGE('',*,*,#514,.F.);
#516=ORIENTED_EDGE('',*,*,#335,.F.);
#518=ORIENTED_EDGE('',*,*,#517,.T.);
#519=EDGE_LOOP('',(#505,#507,#509,#511,#513,#515,#516,#518));
#520=FACE_OUTER_BOUND('',#519,.F.);
#521=ADVANCED_FACE('',(#520),#503,.T.);
#522=CARTESIAN_POINT('',(2.65E-1,-5.E-2,0.E0));
#523=DIRECTION('',(-1.E0,0.E0,0.E0));
#524=DIRECTION('',(0.E0,1.E0,0.E0));
#525=AXIS2_PLACEMENT_3D('',#522,#523,#524);
#526=PLANE('',#525);
#527=ORIENTED_EDGE('',*,*,#504,.F.);
#529=ORIENTED_EDGE('',*,*,#528,.F.);
#531=ORIENTED_EDGE('',*,*,#530,.T.);
#533=ORIENTED_EDGE('',*,*,#532,.F.);
#534=ORIENTED_EDGE('',*,*,#512,.F.);
#536=ORIENTED_EDGE('',*,*,#535,.F.);
#537=EDGE_LOOP('',(#527,#529,#531,#533,#534,#536));
#538=FACE_OUTER_BOUND('',#537,.F.);
#539=ADVANCED_FACE('',(#538),#526,.F.);
#540=CARTESIAN_POINT('',(2.5E-1,-4.E-2,6.E-2));
#541=DIRECTION('',(1.E0,0.E0,0.E0));
#542=DIRECTION('',(0.E0,0.E0,-1.E0));
#543=AXIS2_PLACEMENT_3D('',#540,#541,#542);
#544=CYLINDRICAL_SURFACE('',#543,3.5E-2);
#546=ORIENTED_EDGE('',*,*,#545,.T.);
#548=ORIENTED_EDGE('',*,*,#547,.T.);
#550=ORIENTED_EDGE('',*,*,#549,.F.);
#551=ORIENTED_EDGE('',*,*,#528,.T.);
#552=ORIENTED_EDGE('',*,*,#517,.F.);
#553=ORIENTED_EDGE('',*,*,#337,.F.);
#554=ORIENTED_EDGE('',*,*,#514,.T.);
#555=ORIENTED_EDGE('',*,*,#532,.T.);
#556=EDGE_LOOP('',(#546,#548,#550,#551,#552,#553,#554,#555));
#557=FACE_OUTER_BOUND('',#556,.F.);
#558=ADVANCED_FACE('',(#557),#544,.T.);
#559=CARTESIAN_POINT('',(2.9E-1,-5.E-2,0.E0));
#560=DIRECTION('',(0.E0,-1.E0,0.E0));
#561=DIRECTION('',(-1.E0,0.E0,0.E0));
#562=AXIS2_PLACEMENT_3D('',#559,#560,#561);
#563=PLANE('',#562);
#565=ORIENTED_EDGE('',*,*,#564,.F.);
#566=ORIENTED_EDGE('',*,*,#545,.F.);
#567=ORIENTED_EDGE('',*,*,#530,.F.);
#568=ORIENTED_EDGE('',*,*,#549,.T.);
#569=EDGE_LOOP('',(#565,#566,#567,#568));
#570=FACE_OUTER_BOUND('',#569,.F.);
#571=ADVANCED_FACE('',(#570),#563,.F.);
#572=CARTESIAN_POINT('',(2.9E-1,0.E0,0.E0));
#573=DIRECTION('',(1.E0,0.E0,0.E0));
#574=DIRECTION('',(0.E0,0.E0,-1.E0));
#575=AXIS2_PLACEMENT_3D('',#572,#573,#574);
#576=PLANE('',#575);
#577=ORIENTED_EDGE('',*,*,#564,.T.);
#578=ORIENTED_EDGE('',*,*,#547,.F.);
#579=EDGE_LOOP('',(#577,#578));
#580=FACE_OUTER_BOUND('',#579,.F.);
#581=ADVANCED_FACE('',(#580),#576,.T.);
#582=CARTESIAN_POINT('',(2.9E-1,0.E0,0.E0));
#583=DIRECTION('',(1.E0,0.E0,0.E0));
#584=DIRECTION('',(0.E0,0.E0,-1.E0));
#585=AXIS2_PLACEMENT_3D('',#582,#583,#584);
#586=PLANE('',#585);
#588=ORIENTED_EDGE('',*,*,#587,.F.);
#589=ORIENTED_EDGE('',*,*,#508,.F.);
#590=EDGE_LOOP('',(#588,#589));
#591=FACE_OUTER_BOUND('',#590,.F.);
#592=ADVANCED_FACE('',(#591),#586,.T.);
#593=CARTESIAN_POINT('',(2.65E-1,-3.E-2,0.E0));
#594=DIRECTION('',(0.E0,1.E0,0.E0));
#595=DIRECTION('',(1.E0,0.E0,0.E0));
#596=AXIS2_PLACEMENT_3D('',#593,#594,#595);
#597=PLANE('',#596);
#598=ORIENTED_EDGE('',*,*,#587,.T.);
#599=ORIENTED_EDGE('',*,*,#506,.F.);
#600=ORIENTED_EDGE('',*,*,#535,.T.);
#601=ORIENTED_EDGE('',*,*,#510,.T.);
#602=EDGE_LOOP('',(#598,#599,#600,#601));
#603=FACE_OUTER_BOUND('',#602,.F.);
#604=ADVANCED_FACE('',(#603),#597,.F.);
#605=CLOSED_SHELL('',(#292,#307,#321,#341,#372,#384,#399,#412,#422,#434,#446,
#460,#472,#486,#498,#521,#539,#558,#571,#581,#592,#604));
#606=MANIFOLD_SOLID_BREP('',#605);
#607=DIMENSIONAL_EXPONENTS(1.E0,0.E0,0.E0,0.E0,0.E0,0.E0,0.E0);
#609=LENGTH_MEASURE_WITH_UNIT(LENGTH_MEASURE(2.54E1),#608);
#610=(CONVERSION_BASED_UNIT('INCH',#609)LENGTH_UNIT()NAMED_UNIT(#607));
#611=DIMENSIONAL_EXPONENTS(0.E0,0.E0,0.E0,0.E0,0.E0,0.E0,0.E0);
#613=PLANE_ANGLE_MEASURE_WITH_UNIT(PLANE_ANGLE_MEASURE(1.745329251994E-2),#612);
#614=(CONVERSION_BASED_UNIT('DEGREE',#613)NAMED_UNIT(*)PLANE_ANGLE_UNIT());
#616=UNCERTAINTY_MEASURE_WITH_UNIT(LENGTH_MEASURE(2.300436299831E-5),#610,
'closure',
'Maximum model space distance between geometric entities at asserted connectivities');
#617=(GEOMETRIC_REPRESENTATION_CONTEXT(3)GLOBAL_UNCERTAINTY_ASSIGNED_CONTEXT((
#616))GLOBAL_UNIT_ASSIGNED_CONTEXT((#610,#614,#615))REPRESENTATION_CONTEXT
('ID1','3'));
#619=APPLICATION_CONTEXT(
'CONFIGURATION CONTROLLED 3D DESIGNS OF MECHANICAL PARTS AND ASSEMBLIES');
#620=APPLICATION_PROTOCOL_DEFINITION('international standard',
'config_control_design',1994,#619);
#621=DESIGN_CONTEXT('',#619,'design');
#622=MECHANICAL_CONTEXT('',#619,'mechanical');
#623=PRODUCT('33262W','33262W','NOT SPECIFIED',(#622));
#624=PRODUCT_DEFINITION_FORMATION_WITH_SPECIFIED_SOURCE('2','LAST_VERSION',#623,
.MADE.);
#628=PRODUCT_CATEGORY('part','');
#629=PRODUCT_RELATED_PRODUCT_CATEGORY('detail','',(#623));
#630=PRODUCT_CATEGORY_RELATIONSHIP('','',#628,#629);
#631=SECURITY_CLASSIFICATION_LEVEL('unclassified');
#632=SECURITY_CLASSIFICATION('','',#631);
#633=CC_DESIGN_SECURITY_CLASSIFICATION(#632,(#624));
#634=APPROVAL_STATUS('approved');
#635=APPROVAL(#634,'');
#636=CC_DESIGN_APPROVAL(#635,(#632,#624,#625));
#637=CALENDAR_DATE(113,2,8);
#638=COORDINATED_UNIVERSAL_TIME_OFFSET(7,0,.BEHIND.);
#639=LOCAL_TIME(9,12,1.7E1,#638);
#640=DATE_AND_TIME(#637,#639);
#641=APPROVAL_DATE_TIME(#640,#635);
#642=DATE_TIME_ROLE('creation_date');
#643=CC_DESIGN_DATE_AND_TIME_ASSIGNMENT(#640,#642,(#625));
#644=DATE_TIME_ROLE('classification_date');
#645=CC_DESIGN_DATE_AND_TIME_ASSIGNMENT(#640,#644,(#632));
#646=PERSON('UNSPECIFIED','UNSPECIFIED',$,$,$,$);
#647=ORGANIZATION('UNSPECIFIED','UNSPECIFIED','UNSPECIFIED');
#648=PERSON_AND_ORGANIZATION(#646,#647);
#649=APPROVAL_ROLE('approver');
#650=APPROVAL_PERSON_ORGANIZATION(#648,#635,#649);
#651=PERSON_AND_ORGANIZATION_ROLE('creator');
#652=CC_DESIGN_PERSON_AND_ORGANIZATION_ASSIGNMENT(#648,#651,(#624,#625));
#653=PERSON_AND_ORGANIZATION_ROLE('design_supplier');
#654=CC_DESIGN_PERSON_AND_ORGANIZATION_ASSIGNMENT(#648,#653,(#624));
#655=PERSON_AND_ORGANIZATION_ROLE('classification_officer');
#656=CC_DESIGN_PERSON_AND_ORGANIZATION_ASSIGNMENT(#648,#655,(#632));
#657=PERSON_AND_ORGANIZATION_ROLE('design_owner');
#658=CC_DESIGN_PERSON_AND_ORGANIZATION_ASSIGNMENT(#648,#657,(#623));
#33=CIRCLE('',#32,3.5E-2);
#38=CIRCLE('',#37,3.5E-2);
#47=CIRCLE('',#46,8.101686799680E-3);
#52=CIRCLE('',#51,8.101686799680E-3);
#57=CIRCLE('',#56,8.101686799680E-3);
#62=CIRCLE('',#61,8.101686799680E-3);
#67=CIRCLE('',#66,8.101686799680E-3);
#72=CIRCLE('',#71,8.101686799680E-3);
#101=CIRCLE('',#100,8.101686799680E-3);
#106=CIRCLE('',#105,8.101686799680E-3);
#111=CIRCLE('',#110,8.101686799680E-3);
#116=CIRCLE('',#115,8.101686799680E-3);
#121=CIRCLE('',#120,8.101686799680E-3);
#126=CIRCLE('',#125,8.101686799680E-3);
#147=CIRCLE('',#146,3.5E-2);
#160=CIRCLE('',#159,3.5E-2);
#181=CIRCLE('',#180,3.5E-2);
#190=CIRCLE('',#189,3.5E-2);
#199=CIRCLE('',#198,3.5E-2);
#208=CIRCLE('',#207,3.5E-2);
#282=EDGE_CURVE('',#215,#216,#4,.T.);
#284=EDGE_CURVE('',#216,#218,#8,.T.);
#286=EDGE_CURVE('',#218,#220,#12,.T.);
#288=EDGE_CURVE('',#220,#215,#16,.T.);
#299=EDGE_CURVE('',#215,#223,#20,.T.);
#301=EDGE_CURVE('',#223,#224,#76,.T.);
#303=EDGE_CURVE('',#216,#224,#42,.T.);
#314=EDGE_CURVE('',#220,#228,#24,.T.);
#316=EDGE_CURVE('',#228,#223,#80,.T.);
#328=EDGE_CURVE('',#218,#226,#28,.T.);
#330=EDGE_CURVE('',#226,#228,#84,.T.);
#335=EDGE_CURVE('',#255,#256,#33,.T.);
#337=EDGE_CURVE('',#256,#255,#38,.T.);
#349=EDGE_CURVE('',#224,#226,#88,.T.);
#354=EDGE_CURVE('',#243,#244,#47,.T.);
#356=EDGE_CURVE('',#244,#243,#52,.T.);
#360=EDGE_CURVE('',#247,#248,#57,.T.);
#362=EDGE_CURVE('',#248,#247,#62,.T.);
#366=EDGE_CURVE('',#251,#252,#67,.T.);
#368=EDGE_CURVE('',#252,#251,#72,.T.);
#391=EDGE_CURVE('',#243,#231,#92,.T.);
#393=EDGE_CURVE('',#231,#232,#101,.T.);
#395=EDGE_CURVE('',#244,#232,#96,.T.);
#407=EDGE_CURVE('',#232,#231,#106,.T.);
#428=EDGE_CURVE('',#235,#236,#111,.T.);
#430=EDGE_CURVE('',#236,#235,#116,.T.);
#440=EDGE_CURVE('',#239,#240,#121,.T.);
#442=EDGE_CURVE('',#240,#239,#126,.T.);
#453=EDGE_CURVE('',#247,#235,#130,.T.);
#456=EDGE_CURVE('',#248,#236,#134,.T.);
#479=EDGE_CURVE('',#251,#239,#138,.T.);
#482=EDGE_CURVE('',#252,#240,#142,.T.);
#504=EDGE_CURVE('',#267,#268,#147,.T.);
#506=EDGE_CURVE('',#268,#264,#151,.T.);
#508=EDGE_CURVE('',#264,#263,#208,.T.);
#510=EDGE_CURVE('',#271,#263,#155,.T.);
#512=EDGE_CURVE('',#271,#272,#160,.T.);
#514=EDGE_CURVE('',#256,#272,#185,.T.);
#517=EDGE_CURVE('',#255,#267,#164,.T.);
#528=EDGE_CURVE('',#276,#267,#181,.T.);
#530=EDGE_CURVE('',#276,#274,#168,.T.);
#532=EDGE_CURVE('',#272,#274,#190,.T.);
#535=EDGE_CURVE('',#268,#271,#212,.T.);
#545=EDGE_CURVE('',#274,#259,#172,.T.);
#547=EDGE_CURVE('',#259,#260,#199,.T.);
#549=EDGE_CURVE('',#276,#260,#176,.T.);
#564=EDGE_CURVE('',#259,#260,#194,.T.);
#587=EDGE_CURVE('',#263,#264,#203,.T.);
#608=(LENGTH_UNIT()NAMED_UNIT(*)SI_UNIT(.MILLI.,.METRE.));
#612=(NAMED_UNIT(*)PLANE_ANGLE_UNIT()SI_UNIT($,.RADIAN.));
#615=(NAMED_UNIT(*)SI_UNIT($,.STERADIAN.)SOLID_ANGLE_UNIT());
#618=ADVANCED_BREP_SHAPE_REPRESENTATION('',(#606),#617);
#625=PRODUCT_DEFINITION('design','',#624,#621);
#626=PRODUCT_DEFINITION_SHAPE('','SHAPE FOR 33262W.',#625);
#627=SHAPE_DEFINITION_REPRESENTATION(#626,#618);
ENDSEC;
END-ISO-10303-21;
