ISO-10303-21;
HEADER;
FILE_DESCRIPTION((''),'2;1');
FILE_NAME('5900','2012-08-10T',('ryans'),('Bourns, Inc.'),
'PRO/ENGINEER BY PARAMETRIC TECHNOLOGY CORPORATION, 2010100',
'PRO/ENGINEER BY PARAMETRIC TECHNOLOGY CORPORATION, 2010100','');
FILE_SCHEMA(('CONFIG_CONTROL_DESIGN'));
ENDSEC;
DATA;
#1=CARTESIAN_POINT('',(0.E0,0.E0,-4.5E-1));
#2=DIRECTION('',(0.E0,0.E0,-1.E0));
#3=DIRECTION('',(-1.E0,0.E0,0.E0));
#4=AXIS2_PLACEMENT_3D('',#1,#2,#3);
#6=CARTESIAN_POINT('',(0.E0,0.E0,-4.5E-1));
#7=DIRECTION('',(0.E0,0.E0,-1.E0));
#8=DIRECTION('',(1.E0,0.E0,0.E0));
#9=AXIS2_PLACEMENT_3D('',#6,#7,#8);
#11=CARTESIAN_POINT('',(0.E0,0.E0,-4.5E-1));
#12=DIRECTION('',(0.E0,0.E0,1.E0));
#13=DIRECTION('',(1.E0,0.E0,0.E0));
#14=AXIS2_PLACEMENT_3D('',#11,#12,#13);
#16=CARTESIAN_POINT('',(0.E0,0.E0,-4.5E-1));
#17=DIRECTION('',(0.E0,0.E0,1.E0));
#18=DIRECTION('',(-1.E0,0.E0,0.E0));
#19=AXIS2_PLACEMENT_3D('',#16,#17,#18);
#21=CARTESIAN_POINT('',(0.E0,0.E0,-3.5E-1));
#22=DIRECTION('',(0.E0,0.E0,-1.E0));
#23=DIRECTION('',(-1.E0,0.E0,0.E0));
#24=AXIS2_PLACEMENT_3D('',#21,#22,#23);
#26=DIRECTION('',(1.517480585610E-11,4.694655231855E-11,1.E0));
#27=VECTOR('',#26,1.000000000015E-1);
#28=CARTESIAN_POINT('',(-2.265E-1,0.E0,-4.5E-1));
#29=LINE('',#28,#27);
#30=DIRECTION('',(-7.071067811865E-1,1.465550427085E-11,-7.071067811865E-1));
#31=VECTOR('',#30,5.161879502627E-2);
#32=CARTESIAN_POINT('',(-1.899999999987E-1,3.938128022712E-12,
-3.134999999987E-1));
#33=LINE('',#32,#31);
#34=CARTESIAN_POINT('',(0.E0,0.E0,3.135E-1));
#35=DIRECTION('',(0.E0,0.E0,1.E0));
#36=DIRECTION('',(1.E0,0.E0,0.E0));
#37=AXIS2_PLACEMENT_3D('',#34,#35,#36);
#39=CARTESIAN_POINT('',(0.E0,0.E0,-3.135E-1));
#40=DIRECTION('',(0.E0,0.E0,-1.E0));
#41=DIRECTION('',(-1.E0,0.E0,0.E0));
#42=AXIS2_PLACEMENT_3D('',#39,#40,#41);
#44=DIRECTION('',(0.E0,0.E0,1.E0));
#45=VECTOR('',#44,6.269999999975E-1);
#46=CARTESIAN_POINT('',(1.899999999987E-1,-3.938121002529E-12,
-3.134999999987E-1));
#47=LINE('',#46,#45);
#48=DIRECTION('',(7.071067811865E-1,-1.465583124002E-11,7.071067811865E-1));
#49=VECTOR('',#48,5.161879502627E-2);
#50=CARTESIAN_POINT('',(1.899999999987E-1,-3.938037053914E-12,
3.134999999987E-1));
#51=LINE('',#50,#49);
#52=DIRECTION('',(-7.071067811865E-1,1.465524046078E-11,7.071067811865E-1));
#53=VECTOR('',#52,5.161879502627E-2);
#54=CARTESIAN_POINT('',(-1.899999999987E-1,3.938118574797E-12,
3.134999999987E-1));
#55=LINE('',#54,#53);
#56=CARTESIAN_POINT('',(0.E0,0.E0,3.135E-1));
#57=DIRECTION('',(0.E0,0.E0,1.E0));
#58=DIRECTION('',(-1.E0,0.E0,0.E0));
#59=AXIS2_PLACEMENT_3D('',#56,#57,#58);
#61=CARTESIAN_POINT('',(0.E0,0.E0,-3.135E-1));
#62=DIRECTION('',(0.E0,0.E0,-1.E0));
#63=DIRECTION('',(1.E0,0.E0,0.E0));
#64=AXIS2_PLACEMENT_3D('',#61,#62,#63);
#66=DIRECTION('',(0.E0,0.E0,1.E0));
#67=VECTOR('',#66,6.269999999975E-1);
#68=CARTESIAN_POINT('',(-1.899999999987E-1,3.938128022712E-12,
-3.134999999987E-1));
#69=LINE('',#68,#67);
#70=DIRECTION('',(7.071067811865E-1,-1.465511913834E-11,-7.071067811865E-1));
#71=VECTOR('',#70,5.161879502627E-2);
#72=CARTESIAN_POINT('',(1.899999999987E-1,-3.938121002529E-12,
-3.134999999987E-1));
#73=LINE('',#72,#71);
#74=CARTESIAN_POINT('',(0.E0,0.E0,-3.5E-1));
#75=DIRECTION('',(0.E0,0.E0,-1.E0));
#76=DIRECTION('',(1.E0,0.E0,0.E0));
#77=AXIS2_PLACEMENT_3D('',#74,#75,#76);
#79=DIRECTION('',(-1.517563852337E-11,-4.694628331595E-11,1.E0));
#80=VECTOR('',#79,1.000000000015E-1);
#81=CARTESIAN_POINT('',(2.265E-1,0.E0,-4.5E-1));
#82=LINE('',#81,#80);
#83=CARTESIAN_POINT('',(0.E0,0.E0,3.5E-1));
#84=DIRECTION('',(0.E0,0.E0,1.E0));
#85=DIRECTION('',(-1.E0,0.E0,0.E0));
#86=AXIS2_PLACEMENT_3D('',#83,#84,#85);
#88=DIRECTION('',(1.517536096761E-11,4.694576689882E-11,-1.E0));
#89=VECTOR('',#88,1.000000000015E-1);
#90=CARTESIAN_POINT('',(-2.265E-1,0.E0,4.5E-1));
#91=LINE('',#90,#89);
#92=CARTESIAN_POINT('',(0.E0,0.E0,3.5E-1));
#93=DIRECTION('',(0.E0,0.E0,1.E0));
#94=DIRECTION('',(1.E0,0.E0,0.E0));
#95=AXIS2_PLACEMENT_3D('',#92,#93,#94);
#97=DIRECTION('',(-1.517508341186E-11,-4.694525664311E-11,-1.E0));
#98=VECTOR('',#97,1.000000000015E-1);
#99=CARTESIAN_POINT('',(2.265E-1,0.E0,4.5E-1));
#100=LINE('',#99,#98);
#101=CARTESIAN_POINT('',(0.E0,0.E0,4.5E-1));
#102=DIRECTION('',(0.E0,0.E0,1.E0));
#103=DIRECTION('',(1.E0,0.E0,0.E0));
#104=AXIS2_PLACEMENT_3D('',#101,#102,#103);
#106=CARTESIAN_POINT('',(0.E0,0.E0,4.5E-1));
#107=DIRECTION('',(0.E0,0.E0,1.E0));
#108=DIRECTION('',(-1.E0,0.E0,0.E0));
#109=AXIS2_PLACEMENT_3D('',#106,#107,#108);
#111=CARTESIAN_POINT('',(0.E0,0.E0,4.5E-1));
#112=DIRECTION('',(0.E0,0.E0,1.E0));
#113=DIRECTION('',(1.E0,0.E0,0.E0));
#114=AXIS2_PLACEMENT_3D('',#111,#112,#113);
#116=CARTESIAN_POINT('',(0.E0,0.E0,4.5E-1));
#117=DIRECTION('',(0.E0,0.E0,1.E0));
#118=DIRECTION('',(-1.E0,0.E0,0.E0));
#119=AXIS2_PLACEMENT_3D('',#116,#117,#118);
#121=DIRECTION('',(0.E0,0.E0,1.E0));
#122=VECTOR('',#121,1.E0);
#123=CARTESIAN_POINT('',(1.6E-2,0.E0,-1.45E0));
#124=LINE('',#123,#122);
#125=DIRECTION('',(0.E0,0.E0,1.E0));
#126=VECTOR('',#125,1.E0);
#127=CARTESIAN_POINT('',(1.6E-2,0.E0,4.5E-1));
#128=LINE('',#127,#126);
#129=DIRECTION('',(0.E0,0.E0,1.E0));
#130=VECTOR('',#129,1.E0);
#131=CARTESIAN_POINT('',(-1.6E-2,0.E0,-1.45E0));
#132=LINE('',#131,#130);
#133=DIRECTION('',(0.E0,0.E0,1.E0));
#134=VECTOR('',#133,1.E0);
#135=CARTESIAN_POINT('',(-1.6E-2,0.E0,4.5E-1));
#136=LINE('',#135,#134);
#137=CARTESIAN_POINT('',(0.E0,0.E0,-1.45E0));
#138=DIRECTION('',(0.E0,0.E0,1.E0));
#139=DIRECTION('',(1.E0,0.E0,0.E0));
#140=AXIS2_PLACEMENT_3D('',#137,#138,#139);
#142=CARTESIAN_POINT('',(0.E0,0.E0,-1.45E0));
#143=DIRECTION('',(0.E0,0.E0,1.E0));
#144=DIRECTION('',(-1.E0,0.E0,0.E0));
#145=AXIS2_PLACEMENT_3D('',#142,#143,#144);
#147=CARTESIAN_POINT('',(0.E0,0.E0,1.45E0));
#148=DIRECTION('',(0.E0,0.E0,1.E0));
#149=DIRECTION('',(1.E0,0.E0,0.E0));
#150=AXIS2_PLACEMENT_3D('',#147,#148,#149);
#152=CARTESIAN_POINT('',(0.E0,0.E0,1.45E0));
#153=DIRECTION('',(0.E0,0.E0,1.E0));
#154=DIRECTION('',(-1.E0,0.E0,0.E0));
#155=AXIS2_PLACEMENT_3D('',#152,#153,#154);
#157=CARTESIAN_POINT('',(2.265E-1,0.E0,4.5E-1));
#158=CARTESIAN_POINT('',(-2.265E-1,0.E0,4.5E-1));
#159=VERTEX_POINT('',#157);
#160=VERTEX_POINT('',#158);
#161=CARTESIAN_POINT('',(-2.265E-1,0.E0,-4.5E-1));
#162=CARTESIAN_POINT('',(2.265E-1,0.E0,-4.5E-1));
#163=VERTEX_POINT('',#161);
#164=VERTEX_POINT('',#162);
#165=CARTESIAN_POINT('',(1.6E-2,0.E0,-1.45E0));
#166=CARTESIAN_POINT('',(-1.6E-2,0.E0,-1.45E0));
#167=VERTEX_POINT('',#165);
#168=VERTEX_POINT('',#166);
#169=CARTESIAN_POINT('',(1.6E-2,0.E0,1.45E0));
#170=CARTESIAN_POINT('',(-1.6E-2,0.E0,1.45E0));
#171=VERTEX_POINT('',#169);
#172=VERTEX_POINT('',#170);
#173=CARTESIAN_POINT('',(1.6E-2,0.E0,-4.5E-1));
#174=CARTESIAN_POINT('',(-1.6E-2,0.E0,-4.5E-1));
#175=VERTEX_POINT('',#173);
#176=VERTEX_POINT('',#174);
#177=CARTESIAN_POINT('',(1.6E-2,0.E0,4.5E-1));
#178=CARTESIAN_POINT('',(-1.6E-2,0.E0,4.5E-1));
#179=VERTEX_POINT('',#177);
#180=VERTEX_POINT('',#178);
#181=CARTESIAN_POINT('',(-1.9E-1,0.E0,3.135E-1));
#182=CARTESIAN_POINT('',(1.9E-1,0.E0,3.135E-1));
#183=VERTEX_POINT('',#181);
#184=VERTEX_POINT('',#182);
#185=CARTESIAN_POINT('',(-2.265E-1,0.E0,3.5E-1));
#186=CARTESIAN_POINT('',(2.265E-1,0.E0,3.5E-1));
#187=VERTEX_POINT('',#185);
#188=VERTEX_POINT('',#186);
#189=CARTESIAN_POINT('',(1.9E-1,0.E0,-3.135E-1));
#190=CARTESIAN_POINT('',(-1.9E-1,0.E0,-3.135E-1));
#191=VERTEX_POINT('',#189);
#192=VERTEX_POINT('',#190);
#193=CARTESIAN_POINT('',(2.265E-1,0.E0,-3.5E-1));
#194=CARTESIAN_POINT('',(-2.265E-1,0.E0,-3.5E-1));
#195=VERTEX_POINT('',#193);
#196=VERTEX_POINT('',#194);
#197=CARTESIAN_POINT('',(0.E0,0.E0,-4.5E-1));
#198=DIRECTION('',(0.E0,0.E0,1.E0));
#199=DIRECTION('',(1.E0,0.E0,0.E0));
#200=AXIS2_PLACEMENT_3D('',#197,#198,#199);
#201=PLANE('',#200);
#203=ORIENTED_EDGE('',*,*,#202,.F.);
#205=ORIENTED_EDGE('',*,*,#204,.F.);
#206=EDGE_LOOP('',(#203,#205));
#207=FACE_OUTER_BOUND('',#206,.F.);
#209=ORIENTED_EDGE('',*,*,#208,.F.);
#211=ORIENTED_EDGE('',*,*,#210,.F.);
#212=EDGE_LOOP('',(#209,#211));
#213=FACE_BOUND('',#212,.F.);
#215=CARTESIAN_POINT('',(0.E0,0.E0,-4.5E-1));
#216=DIRECTION('',(0.E0,0.E0,-1.E0));
#217=DIRECTION('',(-1.E0,0.E0,0.E0));
#218=AXIS2_PLACEMENT_3D('',#215,#216,#217);
#219=CYLINDRICAL_SURFACE('',#218,2.265E-1);
#221=ORIENTED_EDGE('',*,*,#220,.F.);
#223=ORIENTED_EDGE('',*,*,#222,.F.);
#224=ORIENTED_EDGE('',*,*,#202,.T.);
#226=ORIENTED_EDGE('',*,*,#225,.T.);
#227=EDGE_LOOP('',(#221,#223,#224,#226));
#228=FACE_OUTER_BOUND('',#227,.F.);
#230=CARTESIAN_POINT('',(0.E0,0.E0,-3.317499999986E-1));
#231=DIRECTION('',(0.E0,0.E0,-1.E0));
#232=DIRECTION('',(0.E0,-1.E0,0.E0));
#233=AXIS2_PLACEMENT_3D('',#230,#231,#232);
#234=CONICAL_SURFACE('',#233,2.082499999986E-1,4.5E1);
#236=ORIENTED_EDGE('',*,*,#235,.F.);
#238=ORIENTED_EDGE('',*,*,#237,.T.);
#239=ORIENTED_EDGE('',*,*,#220,.T.);
#241=ORIENTED_EDGE('',*,*,#240,.F.);
#242=EDGE_LOOP('',(#236,#238,#239,#241));
#243=FACE_OUTER_BOUND('',#242,.F.);
#245=CARTESIAN_POINT('',(0.E0,0.E0,-4.5E-1));
#246=DIRECTION('',(0.E0,0.E0,1.E0));
#247=DIRECTION('',(1.E0,0.E0,0.E0));
#248=AXIS2_PLACEMENT_3D('',#245,#246,#247);
#249=CYLINDRICAL_SURFACE('',#248,1.9E-1);
#251=ORIENTED_EDGE('',*,*,#250,.T.);
#253=ORIENTED_EDGE('',*,*,#252,.F.);
#254=ORIENTED_EDGE('',*,*,#235,.T.);
#256=ORIENTED_EDGE('',*,*,#255,.T.);
#257=EDGE_LOOP('',(#251,#253,#254,#256));
#258=FACE_OUTER_BOUND('',#257,.F.);
#260=CARTESIAN_POINT('',(0.E0,0.E0,3.317499999986E-1));
#261=DIRECTION('',(0.E0,0.E0,1.E0));
#262=DIRECTION('',(0.E0,-1.E0,0.E0));
#263=AXIS2_PLACEMENT_3D('',#260,#261,#262);
#264=CONICAL_SURFACE('',#263,2.082499999986E-1,4.5E1);
#265=ORIENTED_EDGE('',*,*,#250,.F.);
#267=ORIENTED_EDGE('',*,*,#266,.T.);
#269=ORIENTED_EDGE('',*,*,#268,.T.);
#271=ORIENTED_EDGE('',*,*,#270,.F.);
#272=EDGE_LOOP('',(#265,#267,#269,#271));
#273=FACE_OUTER_BOUND('',#272,.F.);
#275=CARTESIAN_POINT('',(0.E0,0.E0,3.317499999986E-1));
#276=DIRECTION('',(0.E0,0.E0,1.E0));
#277=DIRECTION('',(0.E0,-1.E0,0.E0));
#278=AXIS2_PLACEMENT_3D('',#275,#276,#277);
#279=CONICAL_SURFACE('',#278,2.082499999986E-1,4.5E1);
#281=ORIENTED_EDGE('',*,*,#280,.F.);
#282=ORIENTED_EDGE('',*,*,#270,.T.);
#284=ORIENTED_EDGE('',*,*,#283,.T.);
#285=ORIENTED_EDGE('',*,*,#266,.F.);
#286=EDGE_LOOP('',(#281,#282,#284,#285));
#287=FACE_OUTER_BOUND('',#286,.F.);
#289=CARTESIAN_POINT('',(0.E0,0.E0,-4.5E-1));
#290=DIRECTION('',(0.E0,0.E0,1.E0));
#291=DIRECTION('',(1.E0,0.E0,0.E0));
#292=AXIS2_PLACEMENT_3D('',#289,#290,#291);
#293=CYLINDRICAL_SURFACE('',#292,1.9E-1);
#294=ORIENTED_EDGE('',*,*,#280,.T.);
#295=ORIENTED_EDGE('',*,*,#255,.F.);
#297=ORIENTED_EDGE('',*,*,#296,.T.);
#298=ORIENTED_EDGE('',*,*,#252,.T.);
#299=EDGE_LOOP('',(#294,#295,#297,#298));
#300=FACE_OUTER_BOUND('',#299,.F.);
#302=CARTESIAN_POINT('',(0.E0,0.E0,-3.317499999986E-1));
#303=DIRECTION('',(0.E0,0.E0,-1.E0));
#304=DIRECTION('',(0.E0,-1.E0,0.E0));
#305=AXIS2_PLACEMENT_3D('',#302,#303,#304);
#306=CONICAL_SURFACE('',#305,2.082499999986E-1,4.5E1);
#307=ORIENTED_EDGE('',*,*,#296,.F.);
#308=ORIENTED_EDGE('',*,*,#240,.T.);
#310=ORIENTED_EDGE('',*,*,#309,.T.);
#311=ORIENTED_EDGE('',*,*,#237,.F.);
#312=EDGE_LOOP('',(#307,#308,#310,#311));
#313=FACE_OUTER_BOUND('',#312,.F.);
#315=CARTESIAN_POINT('',(0.E0,0.E0,-4.5E-1));
#316=DIRECTION('',(0.E0,0.E0,-1.E0));
#317=DIRECTION('',(-1.E0,0.E0,0.E0));
#318=AXIS2_PLACEMENT_3D('',#315,#316,#317);
#319=CYLINDRICAL_SURFACE('',#318,2.265E-1);
#320=ORIENTED_EDGE('',*,*,#309,.F.);
#321=ORIENTED_EDGE('',*,*,#225,.F.);
#322=ORIENTED_EDGE('',*,*,#204,.T.);
#323=ORIENTED_EDGE('',*,*,#222,.T.);
#324=EDGE_LOOP('',(#320,#321,#322,#323));
#325=FACE_OUTER_BOUND('',#324,.F.);
#327=CARTESIAN_POINT('',(0.E0,0.E0,4.5E-1));
#328=DIRECTION('',(0.E0,0.E0,1.E0));
#329=DIRECTION('',(1.E0,0.E0,0.E0));
#330=AXIS2_PLACEMENT_3D('',#327,#328,#329);
#331=CYLINDRICAL_SURFACE('',#330,2.265E-1);
#332=ORIENTED_EDGE('',*,*,#283,.F.);
#334=ORIENTED_EDGE('',*,*,#333,.F.);
#336=ORIENTED_EDGE('',*,*,#335,.T.);
#338=ORIENTED_EDGE('',*,*,#337,.T.);
#339=EDGE_LOOP('',(#332,#334,#336,#338));
#340=FACE_OUTER_BOUND('',#339,.F.);
#342=CARTESIAN_POINT('',(0.E0,0.E0,4.5E-1));
#343=DIRECTION('',(0.E0,0.E0,1.E0));
#344=DIRECTION('',(1.E0,0.E0,0.E0));
#345=AXIS2_PLACEMENT_3D('',#342,#343,#344);
#346=CYLINDRICAL_SURFACE('',#345,2.265E-1);
#347=ORIENTED_EDGE('',*,*,#268,.F.);
#348=ORIENTED_EDGE('',*,*,#337,.F.);
#350=ORIENTED_EDGE('',*,*,#349,.T.);
#351=ORIENTED_EDGE('',*,*,#333,.T.);
#352=EDGE_LOOP('',(#347,#348,#350,#351));
#353=FACE_OUTER_BOUND('',#352,.F.);
#355=CARTESIAN_POINT('',(0.E0,0.E0,4.5E-1));
#356=DIRECTION('',(0.E0,0.E0,1.E0));
#357=DIRECTION('',(1.E0,0.E0,0.E0));
#358=AXIS2_PLACEMENT_3D('',#355,#356,#357);
#359=PLANE('',#358);
#360=ORIENTED_EDGE('',*,*,#349,.F.);
#361=ORIENTED_EDGE('',*,*,#335,.F.);
#362=EDGE_LOOP('',(#360,#361));
#363=FACE_OUTER_BOUND('',#362,.F.);
#365=ORIENTED_EDGE('',*,*,#364,.T.);
#367=ORIENTED_EDGE('',*,*,#366,.T.);
#368=EDGE_LOOP('',(#365,#367));
#369=FACE_BOUND('',#368,.F.);
#371=CARTESIAN_POINT('',(0.E0,0.E0,-1.45E0));
#372=DIRECTION('',(0.E0,0.E0,1.E0));
#373=DIRECTION('',(1.E0,0.E0,0.E0));
#374=AXIS2_PLACEMENT_3D('',#371,#372,#373);
#375=CYLINDRICAL_SURFACE('',#374,1.6E-2);
#376=ORIENTED_EDGE('',*,*,#208,.T.);
#378=ORIENTED_EDGE('',*,*,#377,.F.);
#380=ORIENTED_EDGE('',*,*,#379,.F.);
#382=ORIENTED_EDGE('',*,*,#381,.T.);
#383=EDGE_LOOP('',(#376,#378,#380,#382));
#384=FACE_OUTER_BOUND('',#383,.F.);
#386=CARTESIAN_POINT('',(0.E0,0.E0,-1.45E0));
#387=DIRECTION('',(0.E0,0.E0,1.E0));
#388=DIRECTION('',(1.E0,0.E0,0.E0));
#389=AXIS2_PLACEMENT_3D('',#386,#387,#388);
#390=CYLINDRICAL_SURFACE('',#389,1.6E-2);
#391=ORIENTED_EDGE('',*,*,#364,.F.);
#393=ORIENTED_EDGE('',*,*,#392,.T.);
#395=ORIENTED_EDGE('',*,*,#394,.T.);
#397=ORIENTED_EDGE('',*,*,#396,.F.);
#398=EDGE_LOOP('',(#391,#393,#395,#397));
#399=FACE_OUTER_BOUND('',#398,.F.);
#401=CARTESIAN_POINT('',(0.E0,0.E0,-1.45E0));
#402=DIRECTION('',(0.E0,0.E0,1.E0));
#403=DIRECTION('',(1.E0,0.E0,0.E0));
#404=AXIS2_PLACEMENT_3D('',#401,#402,#403);
#405=CYLINDRICAL_SURFACE('',#404,1.6E-2);
#406=ORIENTED_EDGE('',*,*,#210,.T.);
#407=ORIENTED_EDGE('',*,*,#381,.F.);
#409=ORIENTED_EDGE('',*,*,#408,.F.);
#410=ORIENTED_EDGE('',*,*,#377,.T.);
#411=EDGE_LOOP('',(#406,#407,#409,#410));
#412=FACE_OUTER_BOUND('',#411,.F.);
#414=CARTESIAN_POINT('',(0.E0,0.E0,-1.45E0));
#415=DIRECTION('',(0.E0,0.E0,1.E0));
#416=DIRECTION('',(1.E0,0.E0,0.E0));
#417=AXIS2_PLACEMENT_3D('',#414,#415,#416);
#418=CYLINDRICAL_SURFACE('',#417,1.6E-2);
#419=ORIENTED_EDGE('',*,*,#366,.F.);
#420=ORIENTED_EDGE('',*,*,#396,.T.);
#422=ORIENTED_EDGE('',*,*,#421,.T.);
#423=ORIENTED_EDGE('',*,*,#392,.F.);
#424=EDGE_LOOP('',(#419,#420,#422,#423));
#425=FACE_OUTER_BOUND('',#424,.F.);
#427=CARTESIAN_POINT('',(0.E0,0.E0,-1.45E0));
#428=DIRECTION('',(0.E0,0.E0,1.E0));
#429=DIRECTION('',(1.E0,0.E0,0.E0));
#430=AXIS2_PLACEMENT_3D('',#427,#428,#429);
#431=PLANE('',#430);
#432=ORIENTED_EDGE('',*,*,#379,.T.);
#433=ORIENTED_EDGE('',*,*,#408,.T.);
#434=EDGE_LOOP('',(#432,#433));
#435=FACE_OUTER_BOUND('',#434,.F.);
#437=CARTESIAN_POINT('',(0.E0,0.E0,1.45E0));
#438=DIRECTION('',(0.E0,0.E0,1.E0));
#439=DIRECTION('',(1.E0,0.E0,0.E0));
#440=AXIS2_PLACEMENT_3D('',#437,#438,#439);
#441=PLANE('',#440);
#442=ORIENTED_EDGE('',*,*,#394,.F.);
#443=ORIENTED_EDGE('',*,*,#421,.F.);
#444=EDGE_LOOP('',(#442,#443));
#445=FACE_OUTER_BOUND('',#444,.F.);
#447=CLOSED_SHELL('',(#214,#229,#244,#259,#274,#288,#301,#314,#326,#341,#354,
#370,#385,#400,#413,#426,#436,#446));
#448=MANIFOLD_SOLID_BREP('',#447);
#449=DIMENSIONAL_EXPONENTS(1.E0,0.E0,0.E0,0.E0,0.E0,0.E0,0.E0);
#451=LENGTH_MEASURE_WITH_UNIT(LENGTH_MEASURE(2.54E1),#450);
#452=(CONVERSION_BASED_UNIT('INCH',#451)LENGTH_UNIT()NAMED_UNIT(#449));
#453=DIMENSIONAL_EXPONENTS(0.E0,0.E0,0.E0,0.E0,0.E0,0.E0,0.E0);
#455=PLANE_ANGLE_MEASURE_WITH_UNIT(PLANE_ANGLE_MEASURE(1.745329251994E-2),#454);
#456=(CONVERSION_BASED_UNIT('DEGREE',#455)NAMED_UNIT(*)PLANE_ANGLE_UNIT());
#458=UNCERTAINTY_MEASURE_WITH_UNIT(LENGTH_MEASURE(1.237416690565E-4),#452,
'closure',
'Maximum model space distance between geometric entities at asserted connectivities');
#461=APPLICATION_CONTEXT(
'CONFIGURATION CONTROLLED 3D DESIGNS OF MECHANICAL PARTS AND ASSEMBLIES');
#462=APPLICATION_PROTOCOL_DEFINITION('international standard',
'config_control_design',1994,#461);
#463=DESIGN_CONTEXT('',#461,'design');
#464=MECHANICAL_CONTEXT('',#461,'mechanical');
#465=PRODUCT('5900','5900','NOT SPECIFIED',(#464));
#466=PRODUCT_DEFINITION_FORMATION_WITH_SPECIFIED_SOURCE('2','LAST_VERSION',#465,
.MADE.);
#470=PRODUCT_CATEGORY('part','');
#471=PRODUCT_RELATED_PRODUCT_CATEGORY('detail','',(#465));
#472=PRODUCT_CATEGORY_RELATIONSHIP('','',#470,#471);
#473=SECURITY_CLASSIFICATION_LEVEL('unclassified');
#474=SECURITY_CLASSIFICATION('','',#473);
#475=CC_DESIGN_SECURITY_CLASSIFICATION(#474,(#466));
#476=APPROVAL_STATUS('approved');
#477=APPROVAL(#476,'');
#478=CC_DESIGN_APPROVAL(#477,(#474,#466,#467));
#479=CALENDAR_DATE(112,10,8);
#480=COORDINATED_UNIVERSAL_TIME_OFFSET(7,0,.BEHIND.);
#481=LOCAL_TIME(9,25,4.1E1,#480);
#482=DATE_AND_TIME(#479,#481);
#483=APPROVAL_DATE_TIME(#482,#477);
#484=DATE_TIME_ROLE('creation_date');
#485=CC_DESIGN_DATE_AND_TIME_ASSIGNMENT(#482,#484,(#467));
#486=DATE_TIME_ROLE('classification_date');
#487=CC_DESIGN_DATE_AND_TIME_ASSIGNMENT(#482,#486,(#474));
#488=PERSON('UNSPECIFIED','UNSPECIFIED',$,$,$,$);
#489=ORGANIZATION('UNSPECIFIED','UNSPECIFIED','UNSPECIFIED');
#490=PERSON_AND_ORGANIZATION(#488,#489);
#491=APPROVAL_ROLE('approver');
#492=APPROVAL_PERSON_ORGANIZATION(#490,#477,#491);
#493=PERSON_AND_ORGANIZATION_ROLE('creator');
#494=CC_DESIGN_PERSON_AND_ORGANIZATION_ASSIGNMENT(#490,#493,(#466,#467));
#495=PERSON_AND_ORGANIZATION_ROLE('design_supplier');
#496=CC_DESIGN_PERSON_AND_ORGANIZATION_ASSIGNMENT(#490,#495,(#466));
#497=PERSON_AND_ORGANIZATION_ROLE('classification_officer');
#498=CC_DESIGN_PERSON_AND_ORGANIZATION_ASSIGNMENT(#490,#497,(#474));
#499=PERSON_AND_ORGANIZATION_ROLE('design_owner');
#500=CC_DESIGN_PERSON_AND_ORGANIZATION_ASSIGNMENT(#490,#499,(#465));
#5=CIRCLE('',#4,2.265E-1);
#10=CIRCLE('',#9,2.265E-1);
#15=CIRCLE('',#14,1.6E-2);
#20=CIRCLE('',#19,1.6E-2);
#25=CIRCLE('',#24,2.265E-1);
#38=CIRCLE('',#37,1.9E-1);
#43=CIRCLE('',#42,1.9E-1);
#60=CIRCLE('',#59,1.9E-1);
#65=CIRCLE('',#64,1.9E-1);
#78=CIRCLE('',#77,2.265E-1);
#87=CIRCLE('',#86,2.265E-1);
#96=CIRCLE('',#95,2.265E-1);
#105=CIRCLE('',#104,2.265E-1);
#110=CIRCLE('',#109,2.265E-1);
#115=CIRCLE('',#114,1.6E-2);
#120=CIRCLE('',#119,1.6E-2);
#141=CIRCLE('',#140,1.6E-2);
#146=CIRCLE('',#145,1.6E-2);
#151=CIRCLE('',#150,1.6E-2);
#156=CIRCLE('',#155,1.6E-2);
#202=EDGE_CURVE('',#163,#164,#5,.T.);
#204=EDGE_CURVE('',#164,#163,#10,.T.);
#208=EDGE_CURVE('',#175,#176,#15,.T.);
#210=EDGE_CURVE('',#176,#175,#20,.T.);
#214=ADVANCED_FACE('',(#207,#213),#201,.F.);
#220=EDGE_CURVE('',#196,#195,#25,.T.);
#222=EDGE_CURVE('',#163,#196,#29,.T.);
#225=EDGE_CURVE('',#164,#195,#82,.T.);
#229=ADVANCED_FACE('',(#228),#219,.T.);
#235=EDGE_CURVE('',#192,#191,#43,.T.);
#237=EDGE_CURVE('',#192,#196,#33,.T.);
#240=EDGE_CURVE('',#191,#195,#73,.T.);
#244=ADVANCED_FACE('',(#243),#234,.T.);
#250=EDGE_CURVE('',#184,#183,#38,.T.);
#252=EDGE_CURVE('',#192,#183,#69,.T.);
#255=EDGE_CURVE('',#191,#184,#47,.T.);
#259=ADVANCED_FACE('',(#258),#249,.T.);
#266=EDGE_CURVE('',#184,#188,#51,.T.);
#268=EDGE_CURVE('',#188,#187,#96,.T.);
#270=EDGE_CURVE('',#183,#187,#55,.T.);
#274=ADVANCED_FACE('',(#273),#264,.T.);
#280=EDGE_CURVE('',#183,#184,#60,.T.);
#283=EDGE_CURVE('',#187,#188,#87,.T.);
#288=ADVANCED_FACE('',(#287),#279,.T.);
#296=EDGE_CURVE('',#191,#192,#65,.T.);
#301=ADVANCED_FACE('',(#300),#293,.T.);
#309=EDGE_CURVE('',#195,#196,#78,.T.);
#314=ADVANCED_FACE('',(#313),#306,.T.);
#326=ADVANCED_FACE('',(#325),#319,.T.);
#333=EDGE_CURVE('',#160,#187,#91,.T.);
#335=EDGE_CURVE('',#160,#159,#110,.T.);
#337=EDGE_CURVE('',#159,#188,#100,.T.);
#341=ADVANCED_FACE('',(#340),#331,.T.);
#349=EDGE_CURVE('',#159,#160,#105,.T.);
#354=ADVANCED_FACE('',(#353),#346,.T.);
#364=EDGE_CURVE('',#179,#180,#115,.T.);
#366=EDGE_CURVE('',#180,#179,#120,.T.);
#370=ADVANCED_FACE('',(#363,#369),#359,.T.);
#377=EDGE_CURVE('',#168,#176,#132,.T.);
#379=EDGE_CURVE('',#167,#168,#141,.T.);
#381=EDGE_CURVE('',#167,#175,#124,.T.);
#385=ADVANCED_FACE('',(#384),#375,.T.);
#392=EDGE_CURVE('',#179,#171,#128,.T.);
#394=EDGE_CURVE('',#171,#172,#151,.T.);
#396=EDGE_CURVE('',#180,#172,#136,.T.);
#400=ADVANCED_FACE('',(#399),#390,.T.);
#408=EDGE_CURVE('',#168,#167,#146,.T.);
#413=ADVANCED_FACE('',(#412),#405,.T.);
#421=EDGE_CURVE('',#172,#171,#156,.T.);
#426=ADVANCED_FACE('',(#425),#418,.T.);
#436=ADVANCED_FACE('',(#435),#431,.F.);
#446=ADVANCED_FACE('',(#445),#441,.T.);
#450=(LENGTH_UNIT()NAMED_UNIT(*)SI_UNIT(.MILLI.,.METRE.));
#454=(NAMED_UNIT(*)PLANE_ANGLE_UNIT()SI_UNIT($,.RADIAN.));
#457=(NAMED_UNIT(*)SI_UNIT($,.STERADIAN.)SOLID_ANGLE_UNIT());
#459=(GEOMETRIC_REPRESENTATION_CONTEXT(3)GLOBAL_UNCERTAINTY_ASSIGNED_CONTEXT((
#458))GLOBAL_UNIT_ASSIGNED_CONTEXT((#452,#456,#457))REPRESENTATION_CONTEXT
('ID1','3'));
#460=ADVANCED_BREP_SHAPE_REPRESENTATION('',(#448),#459);
#467=PRODUCT_DEFINITION('design','',#466,#463);
#468=PRODUCT_DEFINITION_SHAPE('','SHAPE FOR 5900.',#467);
#469=SHAPE_DEFINITION_REPRESENTATION(#468,#460);
ENDSEC;
END-ISO-10303-21;
