ISO-10303-21;
HEADER;
FILE_DESCRIPTION((''),'2;1');
FILE_NAME('6000','2012-08-10T',('ryans'),('Bourns, Inc.'),
'PRO/ENGINEER BY PARAMETRIC TECHNOLOGY CORPORATION, 2010100',
'PRO/ENGINEER BY PARAMETRIC TECHNOLOGY CORPORATION, 2010100','');
FILE_SCHEMA(('CONFIG_CONTROL_DESIGN'));
ENDSEC;
DATA;
#1=CARTESIAN_POINT('',(0.E0,-6.1E0,0.E0));
#2=DIRECTION('',(0.E0,-1.E0,0.E0));
#3=DIRECTION('',(-1.E0,0.E0,0.E0));
#4=AXIS2_PLACEMENT_3D('',#1,#2,#3);
#6=CARTESIAN_POINT('',(0.E0,-6.1E0,0.E0));
#7=DIRECTION('',(0.E0,-1.E0,0.E0));
#8=DIRECTION('',(1.E0,0.E0,0.E0));
#9=AXIS2_PLACEMENT_3D('',#6,#7,#8);
#11=CARTESIAN_POINT('',(0.E0,-4.799999994334E0,0.E0));
#12=DIRECTION('',(0.E0,-1.E0,0.E0));
#13=DIRECTION('',(-1.E0,0.E0,0.E0));
#14=AXIS2_PLACEMENT_3D('',#11,#12,#13);
#16=DIRECTION('',(-9.232047600307E-10,1.E0,0.E0));
#17=VECTOR('',#16,1.300000000664E0);
#18=CARTESIAN_POINT('',(-4.5E0,-6.1E0,0.E0));
#19=LINE('',#18,#17);
#20=CARTESIAN_POINT('',(-8.E0,-2.863508321230E0,0.E0));
#21=DIRECTION('',(0.E0,0.E0,-1.E0));
#22=DIRECTION('',(1.E0,0.E0,0.E0));
#23=AXIS2_PLACEMENT_3D('',#20,#21,#22);
#25=CARTESIAN_POINT('',(0.E0,-2.863508321230E0,0.E0));
#26=DIRECTION('',(0.E0,-1.E0,0.E0));
#27=DIRECTION('',(-1.E0,0.E0,0.E0));
#28=AXIS2_PLACEMENT_3D('',#25,#26,#27);
#30=DIRECTION('',(0.E0,1.E0,0.E0));
#31=VECTOR('',#30,5.727016649256E0);
#32=CARTESIAN_POINT('',(4.E0,-2.863508324628E0,0.E0));
#33=LINE('',#32,#31);
#34=CARTESIAN_POINT('',(0.E0,2.863508321230E0,0.E0));
#35=DIRECTION('',(0.E0,1.E0,0.E0));
#36=DIRECTION('',(1.E0,0.E0,0.E0));
#37=AXIS2_PLACEMENT_3D('',#34,#35,#36);
#39=CARTESIAN_POINT('',(0.E0,-2.863508321230E0,0.E0));
#40=DIRECTION('',(0.E0,-1.E0,0.E0));
#41=DIRECTION('',(1.E0,0.E0,0.E0));
#42=AXIS2_PLACEMENT_3D('',#39,#40,#41);
#44=DIRECTION('',(0.E0,1.E0,0.E0));
#45=VECTOR('',#44,5.727016649256E0);
#46=CARTESIAN_POINT('',(-4.E0,-2.863508324628E0,0.E0));
#47=LINE('',#46,#45);
#48=CARTESIAN_POINT('',(0.E0,2.863508321230E0,0.E0));
#49=DIRECTION('',(0.E0,1.E0,0.E0));
#50=DIRECTION('',(-1.E0,0.E0,0.E0));
#51=AXIS2_PLACEMENT_3D('',#48,#49,#50);
#53=CARTESIAN_POINT('',(8.E0,-2.863508321230E0,0.E0));
#54=DIRECTION('',(0.E0,0.E0,1.E0));
#55=DIRECTION('',(-1.E0,0.E0,0.E0));
#56=AXIS2_PLACEMENT_3D('',#53,#54,#55);
#58=CARTESIAN_POINT('',(0.E0,-4.799999994334E0,0.E0));
#59=DIRECTION('',(0.E0,-1.E0,0.E0));
#60=DIRECTION('',(1.E0,0.E0,0.E0));
#61=AXIS2_PLACEMENT_3D('',#58,#59,#60);
#63=DIRECTION('',(9.232054432449E-10,1.E0,0.E0));
#64=VECTOR('',#63,1.300000000664E0);
#65=CARTESIAN_POINT('',(4.5E0,-6.1E0,0.E0));
#66=LINE('',#65,#64);
#67=CARTESIAN_POINT('',(-8.E0,2.863508321230E0,0.E0));
#68=DIRECTION('',(0.E0,0.E0,1.E0));
#69=DIRECTION('',(1.E0,0.E0,0.E0));
#70=AXIS2_PLACEMENT_3D('',#67,#68,#69);
#72=CARTESIAN_POINT('',(8.E0,2.863508321230E0,0.E0));
#73=DIRECTION('',(0.E0,0.E0,-1.E0));
#74=DIRECTION('',(-1.E0,0.E0,0.E0));
#75=AXIS2_PLACEMENT_3D('',#72,#73,#74);
#77=CARTESIAN_POINT('',(0.E0,4.799999994334E0,0.E0));
#78=DIRECTION('',(0.E0,1.E0,0.E0));
#79=DIRECTION('',(1.E0,0.E0,0.E0));
#80=AXIS2_PLACEMENT_3D('',#77,#78,#79);
#82=DIRECTION('',(9.232040768165E-10,-1.E0,0.E0));
#83=VECTOR('',#82,1.300000000664E0);
#84=CARTESIAN_POINT('',(4.5E0,6.1E0,0.E0));
#85=LINE('',#84,#83);
#86=CARTESIAN_POINT('',(0.E0,4.799999994334E0,0.E0));
#87=DIRECTION('',(0.E0,1.E0,0.E0));
#88=DIRECTION('',(-1.E0,0.E0,0.E0));
#89=AXIS2_PLACEMENT_3D('',#86,#87,#88);
#91=DIRECTION('',(-9.232040768165E-10,-1.E0,0.E0));
#92=VECTOR('',#91,1.300000000664E0);
#93=CARTESIAN_POINT('',(-4.5E0,6.1E0,0.E0));
#94=LINE('',#93,#92);
#95=CARTESIAN_POINT('',(0.E0,6.1E0,0.E0));
#96=DIRECTION('',(0.E0,1.E0,0.E0));
#97=DIRECTION('',(1.E0,0.E0,0.E0));
#98=AXIS2_PLACEMENT_3D('',#95,#96,#97);
#100=CARTESIAN_POINT('',(0.E0,6.1E0,0.E0));
#101=DIRECTION('',(0.E0,1.E0,0.E0));
#102=DIRECTION('',(-1.E0,0.E0,0.E0));
#103=AXIS2_PLACEMENT_3D('',#100,#101,#102);
#105=CARTESIAN_POINT('',(0.E0,6.1E0,-2.5E0));
#106=DIRECTION('',(0.E0,1.E0,0.E0));
#107=DIRECTION('',(0.E0,0.E0,-1.E0));
#108=AXIS2_PLACEMENT_3D('',#105,#106,#107);
#110=CARTESIAN_POINT('',(0.E0,6.1E0,-2.5E0));
#111=DIRECTION('',(0.E0,1.E0,0.E0));
#112=DIRECTION('',(0.E0,0.E0,1.E0));
#113=AXIS2_PLACEMENT_3D('',#110,#111,#112);
#115=CARTESIAN_POINT('',(0.E0,6.1E0,2.5E0));
#116=DIRECTION('',(0.E0,1.E0,0.E0));
#117=DIRECTION('',(0.E0,0.E0,-1.E0));
#118=AXIS2_PLACEMENT_3D('',#115,#116,#117);
#120=CARTESIAN_POINT('',(0.E0,6.1E0,2.5E0));
#121=DIRECTION('',(0.E0,1.E0,0.E0));
#122=DIRECTION('',(0.E0,0.E0,1.E0));
#123=AXIS2_PLACEMENT_3D('',#120,#121,#122);
#125=DIRECTION('',(0.E0,1.E0,0.E0));
#126=VECTOR('',#125,1.E1);
#127=CARTESIAN_POINT('',(0.E0,6.1E0,-2.85E0));
#128=LINE('',#127,#126);
#129=DIRECTION('',(0.E0,1.E0,0.E0));
#130=VECTOR('',#129,1.E1);
#131=CARTESIAN_POINT('',(0.E0,6.1E0,-2.15E0));
#132=LINE('',#131,#130);
#133=CARTESIAN_POINT('',(0.E0,1.61E1,-2.5E0));
#134=DIRECTION('',(0.E0,1.E0,0.E0));
#135=DIRECTION('',(0.E0,0.E0,-1.E0));
#136=AXIS2_PLACEMENT_3D('',#133,#134,#135);
#138=CARTESIAN_POINT('',(0.E0,1.61E1,-2.5E0));
#139=DIRECTION('',(0.E0,1.E0,0.E0));
#140=DIRECTION('',(0.E0,0.E0,1.E0));
#141=AXIS2_PLACEMENT_3D('',#138,#139,#140);
#143=CARTESIAN_POINT('',(0.E0,1.61E1,2.5E0));
#144=DIRECTION('',(0.E0,1.E0,0.E0));
#145=DIRECTION('',(0.E0,0.E0,-1.E0));
#146=AXIS2_PLACEMENT_3D('',#143,#144,#145);
#148=CARTESIAN_POINT('',(0.E0,1.61E1,2.5E0));
#149=DIRECTION('',(0.E0,1.E0,0.E0));
#150=DIRECTION('',(0.E0,0.E0,1.E0));
#151=AXIS2_PLACEMENT_3D('',#148,#149,#150);
#153=DIRECTION('',(0.E0,1.E0,0.E0));
#154=VECTOR('',#153,1.E1);
#155=CARTESIAN_POINT('',(0.E0,6.1E0,2.15E0));
#156=LINE('',#155,#154);
#157=DIRECTION('',(0.E0,1.E0,0.E0));
#158=VECTOR('',#157,1.E1);
#159=CARTESIAN_POINT('',(0.E0,6.1E0,2.85E0));
#160=LINE('',#159,#158);
#161=CARTESIAN_POINT('',(4.5E0,6.1E0,0.E0));
#162=CARTESIAN_POINT('',(-4.5E0,6.1E0,0.E0));
#163=VERTEX_POINT('',#161);
#164=VERTEX_POINT('',#162);
#165=CARTESIAN_POINT('',(-4.5E0,-6.1E0,0.E0));
#166=CARTESIAN_POINT('',(4.5E0,-6.1E0,0.E0));
#167=VERTEX_POINT('',#165);
#168=VERTEX_POINT('',#166);
#169=CARTESIAN_POINT('',(4.E0,-2.863508321230E0,0.E0));
#170=CARTESIAN_POINT('',(-4.E0,-2.863508321230E0,0.E0));
#171=VERTEX_POINT('',#169);
#172=VERTEX_POINT('',#170);
#173=CARTESIAN_POINT('',(4.5E0,-4.799999994334E0,0.E0));
#174=CARTESIAN_POINT('',(-4.5E0,-4.799999994334E0,0.E0));
#175=VERTEX_POINT('',#173);
#176=VERTEX_POINT('',#174);
#177=CARTESIAN_POINT('',(-4.E0,2.863508321230E0,0.E0));
#178=CARTESIAN_POINT('',(4.E0,2.863508321230E0,0.E0));
#179=VERTEX_POINT('',#177);
#180=VERTEX_POINT('',#178);
#181=CARTESIAN_POINT('',(-4.5E0,4.799999994334E0,0.E0));
#182=CARTESIAN_POINT('',(4.5E0,4.799999994334E0,0.E0));
#183=VERTEX_POINT('',#181);
#184=VERTEX_POINT('',#182);
#185=CARTESIAN_POINT('',(0.E0,1.61E1,-2.85E0));
#186=CARTESIAN_POINT('',(0.E0,1.61E1,-2.15E0));
#187=VERTEX_POINT('',#185);
#188=VERTEX_POINT('',#186);
#189=CARTESIAN_POINT('',(0.E0,1.61E1,2.15E0));
#190=CARTESIAN_POINT('',(0.E0,1.61E1,2.85E0));
#191=VERTEX_POINT('',#189);
#192=VERTEX_POINT('',#190);
#193=CARTESIAN_POINT('',(0.E0,6.1E0,-2.85E0));
#194=CARTESIAN_POINT('',(0.E0,6.1E0,-2.15E0));
#195=VERTEX_POINT('',#193);
#196=VERTEX_POINT('',#194);
#197=CARTESIAN_POINT('',(0.E0,6.1E0,2.15E0));
#198=CARTESIAN_POINT('',(0.E0,6.1E0,2.85E0));
#199=VERTEX_POINT('',#197);
#200=VERTEX_POINT('',#198);
#201=CARTESIAN_POINT('',(0.E0,-6.1E0,0.E0));
#202=DIRECTION('',(0.E0,1.E0,0.E0));
#203=DIRECTION('',(1.E0,0.E0,0.E0));
#204=AXIS2_PLACEMENT_3D('',#201,#202,#203);
#205=PLANE('',#204);
#207=ORIENTED_EDGE('',*,*,#206,.F.);
#209=ORIENTED_EDGE('',*,*,#208,.F.);
#210=EDGE_LOOP('',(#207,#209));
#211=FACE_OUTER_BOUND('',#210,.F.);
#213=CARTESIAN_POINT('',(0.E0,-6.1E0,0.E0));
#214=DIRECTION('',(0.E0,-1.E0,0.E0));
#215=DIRECTION('',(-1.E0,0.E0,0.E0));
#216=AXIS2_PLACEMENT_3D('',#213,#214,#215);
#217=CYLINDRICAL_SURFACE('',#216,4.5E0);
#219=ORIENTED_EDGE('',*,*,#218,.F.);
#221=ORIENTED_EDGE('',*,*,#220,.F.);
#222=ORIENTED_EDGE('',*,*,#206,.T.);
#224=ORIENTED_EDGE('',*,*,#223,.T.);
#225=EDGE_LOOP('',(#219,#221,#222,#224));
#226=FACE_OUTER_BOUND('',#225,.F.);
#228=CARTESIAN_POINT('',(0.E0,-2.863508321230E0,0.E0));
#229=DIRECTION('',(0.E0,1.E0,0.E0));
#230=DIRECTION('',(-9.999999997578E-1,0.E0,2.200967356215E-5));
#231=AXIS2_PLACEMENT_3D('',#228,#229,#230);
#232=TOROIDAL_SURFACE('',#231,8.E0,4.E0);
#234=ORIENTED_EDGE('',*,*,#233,.F.);
#236=ORIENTED_EDGE('',*,*,#235,.T.);
#237=ORIENTED_EDGE('',*,*,#218,.T.);
#239=ORIENTED_EDGE('',*,*,#238,.F.);
#240=EDGE_LOOP('',(#234,#236,#237,#239));
#241=FACE_OUTER_BOUND('',#240,.F.);
#243=CARTESIAN_POINT('',(0.E0,-6.1E0,0.E0));
#244=DIRECTION('',(0.E0,1.E0,0.E0));
#245=DIRECTION('',(1.E0,0.E0,0.E0));
#246=AXIS2_PLACEMENT_3D('',#243,#244,#245);
#247=CYLINDRICAL_SURFACE('',#246,4.E0);
#248=ORIENTED_EDGE('',*,*,#233,.T.);
#250=ORIENTED_EDGE('',*,*,#249,.T.);
#252=ORIENTED_EDGE('',*,*,#251,.T.);
#254=ORIENTED_EDGE('',*,*,#253,.F.);
#255=EDGE_LOOP('',(#248,#250,#252,#254));
#256=FACE_OUTER_BOUND('',#255,.F.);
#258=CARTESIAN_POINT('',(0.E0,-6.1E0,0.E0));
#259=DIRECTION('',(0.E0,1.E0,0.E0));
#260=DIRECTION('',(1.E0,0.E0,0.E0));
#261=AXIS2_PLACEMENT_3D('',#258,#259,#260);
#262=CYLINDRICAL_SURFACE('',#261,4.E0);
#264=ORIENTED_EDGE('',*,*,#263,.T.);
#265=ORIENTED_EDGE('',*,*,#253,.T.);
#267=ORIENTED_EDGE('',*,*,#266,.T.);
#268=ORIENTED_EDGE('',*,*,#249,.F.);
#269=EDGE_LOOP('',(#264,#265,#267,#268));
#270=FACE_OUTER_BOUND('',#269,.F.);
#272=CARTESIAN_POINT('',(0.E0,-2.863508321230E0,0.E0));
#273=DIRECTION('',(0.E0,1.E0,0.E0));
#274=DIRECTION('',(9.999999997578E-1,0.E0,-2.200967356215E-5));
#275=AXIS2_PLACEMENT_3D('',#272,#273,#274);
#276=TOROIDAL_SURFACE('',#275,8.E0,4.E0);
#277=ORIENTED_EDGE('',*,*,#263,.F.);
#278=ORIENTED_EDGE('',*,*,#238,.T.);
#280=ORIENTED_EDGE('',*,*,#279,.T.);
#281=ORIENTED_EDGE('',*,*,#235,.F.);
#282=EDGE_LOOP('',(#277,#278,#280,#281));
#283=FACE_OUTER_BOUND('',#282,.F.);
#285=CARTESIAN_POINT('',(0.E0,-6.1E0,0.E0));
#286=DIRECTION('',(0.E0,-1.E0,0.E0));
#287=DIRECTION('',(-1.E0,0.E0,0.E0));
#288=AXIS2_PLACEMENT_3D('',#285,#286,#287);
#289=CYLINDRICAL_SURFACE('',#288,4.5E0);
#290=ORIENTED_EDGE('',*,*,#279,.F.);
#291=ORIENTED_EDGE('',*,*,#223,.F.);
#292=ORIENTED_EDGE('',*,*,#208,.T.);
#293=ORIENTED_EDGE('',*,*,#220,.T.);
#294=EDGE_LOOP('',(#290,#291,#292,#293));
#295=FACE_OUTER_BOUND('',#294,.F.);
#297=CARTESIAN_POINT('',(0.E0,2.863508321230E0,0.E0));
#298=DIRECTION('',(0.E0,1.E0,0.E0));
#299=DIRECTION('',(-9.999999997578E-1,0.E0,-2.200967356215E-5));
#300=AXIS2_PLACEMENT_3D('',#297,#298,#299);
#301=TOROIDAL_SURFACE('',#300,8.E0,4.E0);
#302=ORIENTED_EDGE('',*,*,#266,.F.);
#304=ORIENTED_EDGE('',*,*,#303,.T.);
#306=ORIENTED_EDGE('',*,*,#305,.T.);
#308=ORIENTED_EDGE('',*,*,#307,.F.);
#309=EDGE_LOOP('',(#302,#304,#306,#308));
#310=FACE_OUTER_BOUND('',#309,.F.);
#312=CARTESIAN_POINT('',(0.E0,2.863508321230E0,0.E0));
#313=DIRECTION('',(0.E0,1.E0,0.E0));
#314=DIRECTION('',(9.999999997578E-1,0.E0,2.200967356215E-5));
#315=AXIS2_PLACEMENT_3D('',#312,#313,#314);
#316=TOROIDAL_SURFACE('',#315,8.E0,4.E0);
#317=ORIENTED_EDGE('',*,*,#251,.F.);
#318=ORIENTED_EDGE('',*,*,#307,.T.);
#320=ORIENTED_EDGE('',*,*,#319,.T.);
#321=ORIENTED_EDGE('',*,*,#303,.F.);
#322=EDGE_LOOP('',(#317,#318,#320,#321));
#323=FACE_OUTER_BOUND('',#322,.F.);
#325=CARTESIAN_POINT('',(0.E0,6.1E0,0.E0));
#326=DIRECTION('',(0.E0,1.E0,0.E0));
#327=DIRECTION('',(1.E0,0.E0,0.E0));
#328=AXIS2_PLACEMENT_3D('',#325,#326,#327);
#329=CYLINDRICAL_SURFACE('',#328,4.5E0);
#330=ORIENTED_EDGE('',*,*,#319,.F.);
#332=ORIENTED_EDGE('',*,*,#331,.F.);
#334=ORIENTED_EDGE('',*,*,#333,.T.);
#336=ORIENTED_EDGE('',*,*,#335,.T.);
#337=EDGE_LOOP('',(#330,#332,#334,#336));
#338=FACE_OUTER_BOUND('',#337,.F.);
#340=CARTESIAN_POINT('',(0.E0,6.1E0,0.E0));
#341=DIRECTION('',(0.E0,1.E0,0.E0));
#342=DIRECTION('',(1.E0,0.E0,0.E0));
#343=AXIS2_PLACEMENT_3D('',#340,#341,#342);
#344=CYLINDRICAL_SURFACE('',#343,4.5E0);
#345=ORIENTED_EDGE('',*,*,#305,.F.);
#346=ORIENTED_EDGE('',*,*,#335,.F.);
#348=ORIENTED_EDGE('',*,*,#347,.T.);
#349=ORIENTED_EDGE('',*,*,#331,.T.);
#350=EDGE_LOOP('',(#345,#346,#348,#349));
#351=FACE_OUTER_BOUND('',#350,.F.);
#353=CARTESIAN_POINT('',(0.E0,6.1E0,0.E0));
#354=DIRECTION('',(0.E0,1.E0,0.E0));
#355=DIRECTION('',(1.E0,0.E0,0.E0));
#356=AXIS2_PLACEMENT_3D('',#353,#354,#355);
#357=PLANE('',#356);
#358=ORIENTED_EDGE('',*,*,#333,.F.);
#359=ORIENTED_EDGE('',*,*,#347,.F.);
#360=EDGE_LOOP('',(#358,#359));
#361=FACE_OUTER_BOUND('',#360,.F.);
#363=ORIENTED_EDGE('',*,*,#362,.T.);
#365=ORIENTED_EDGE('',*,*,#364,.T.);
#366=EDGE_LOOP('',(#363,#365));
#367=FACE_BOUND('',#366,.F.);
#369=ORIENTED_EDGE('',*,*,#368,.T.);
#371=ORIENTED_EDGE('',*,*,#370,.T.);
#372=EDGE_LOOP('',(#369,#371));
#373=FACE_BOUND('',#372,.F.);
#375=CARTESIAN_POINT('',(0.E0,6.1E0,-2.5E0));
#376=DIRECTION('',(0.E0,1.E0,0.E0));
#377=DIRECTION('',(0.E0,0.E0,-1.E0));
#378=AXIS2_PLACEMENT_3D('',#375,#376,#377);
#379=CYLINDRICAL_SURFACE('',#378,3.5E-1);
#380=ORIENTED_EDGE('',*,*,#362,.F.);
#382=ORIENTED_EDGE('',*,*,#381,.T.);
#384=ORIENTED_EDGE('',*,*,#383,.T.);
#386=ORIENTED_EDGE('',*,*,#385,.F.);
#387=EDGE_LOOP('',(#380,#382,#384,#386));
#388=FACE_OUTER_BOUND('',#387,.F.);
#390=CARTESIAN_POINT('',(0.E0,6.1E0,-2.5E0));
#391=DIRECTION('',(0.E0,1.E0,0.E0));
#392=DIRECTION('',(0.E0,0.E0,-1.E0));
#393=AXIS2_PLACEMENT_3D('',#390,#391,#392);
#394=CYLINDRICAL_SURFACE('',#393,3.5E-1);
#395=ORIENTED_EDGE('',*,*,#364,.F.);
#396=ORIENTED_EDGE('',*,*,#385,.T.);
#398=ORIENTED_EDGE('',*,*,#397,.T.);
#399=ORIENTED_EDGE('',*,*,#381,.F.);
#400=EDGE_LOOP('',(#395,#396,#398,#399));
#401=FACE_OUTER_BOUND('',#400,.F.);
#403=CARTESIAN_POINT('',(0.E0,1.61E1,0.E0));
#404=DIRECTION('',(0.E0,1.E0,0.E0));
#405=DIRECTION('',(0.E0,0.E0,-1.E0));
#406=AXIS2_PLACEMENT_3D('',#403,#404,#405);
#407=PLANE('',#406);
#408=ORIENTED_EDGE('',*,*,#383,.F.);
#409=ORIENTED_EDGE('',*,*,#397,.F.);
#410=EDGE_LOOP('',(#408,#409));
#411=FACE_OUTER_BOUND('',#410,.F.);
#413=CARTESIAN_POINT('',(0.E0,1.61E1,0.E0));
#414=DIRECTION('',(0.E0,1.E0,0.E0));
#415=DIRECTION('',(0.E0,0.E0,-1.E0));
#416=AXIS2_PLACEMENT_3D('',#413,#414,#415);
#417=PLANE('',#416);
#419=ORIENTED_EDGE('',*,*,#418,.F.);
#421=ORIENTED_EDGE('',*,*,#420,.F.);
#422=EDGE_LOOP('',(#419,#421));
#423=FACE_OUTER_BOUND('',#422,.F.);
#425=CARTESIAN_POINT('',(0.E0,6.1E0,2.5E0));
#426=DIRECTION('',(0.E0,1.E0,0.E0));
#427=DIRECTION('',(0.E0,0.E0,-1.E0));
#428=AXIS2_PLACEMENT_3D('',#425,#426,#427);
#429=CYLINDRICAL_SURFACE('',#428,3.5E-1);
#430=ORIENTED_EDGE('',*,*,#368,.F.);
#432=ORIENTED_EDGE('',*,*,#431,.T.);
#433=ORIENTED_EDGE('',*,*,#418,.T.);
#435=ORIENTED_EDGE('',*,*,#434,.F.);
#436=EDGE_LOOP('',(#430,#432,#433,#435));
#437=FACE_OUTER_BOUND('',#436,.F.);
#439=CARTESIAN_POINT('',(0.E0,6.1E0,2.5E0));
#440=DIRECTION('',(0.E0,1.E0,0.E0));
#441=DIRECTION('',(0.E0,0.E0,-1.E0));
#442=AXIS2_PLACEMENT_3D('',#439,#440,#441);
#443=CYLINDRICAL_SURFACE('',#442,3.5E-1);
#444=ORIENTED_EDGE('',*,*,#370,.F.);
#445=ORIENTED_EDGE('',*,*,#434,.T.);
#446=ORIENTED_EDGE('',*,*,#420,.T.);
#447=ORIENTED_EDGE('',*,*,#431,.F.);
#448=EDGE_LOOP('',(#444,#445,#446,#447));
#449=FACE_OUTER_BOUND('',#448,.F.);
#451=CLOSED_SHELL('',(#212,#227,#242,#257,#271,#284,#296,#311,#324,#339,#352,
#374,#389,#402,#412,#424,#438,#450));
#452=MANIFOLD_SOLID_BREP('',#451);
#454=DIMENSIONAL_EXPONENTS(0.E0,0.E0,0.E0,0.E0,0.E0,0.E0,0.E0);
#456=PLANE_ANGLE_MEASURE_WITH_UNIT(PLANE_ANGLE_MEASURE(1.745329251994E-2),#455);
#457=(CONVERSION_BASED_UNIT('DEGREE',#456)NAMED_UNIT(*)PLANE_ANGLE_UNIT());
#459=UNCERTAINTY_MEASURE_WITH_UNIT(LENGTH_MEASURE(1.066200756011E-3),#453,
'closure',
'Maximum model space distance between geometric entities at asserted connectivities');
#462=APPLICATION_CONTEXT(
'CONFIGURATION CONTROLLED 3D DESIGNS OF MECHANICAL PARTS AND ASSEMBLIES');
#463=APPLICATION_PROTOCOL_DEFINITION('international standard',
'config_control_design',1994,#462);
#464=DESIGN_CONTEXT('',#462,'design');
#465=MECHANICAL_CONTEXT('',#462,'mechanical');
#466=PRODUCT('6000','6000','NOT SPECIFIED',(#465));
#467=PRODUCT_DEFINITION_FORMATION_WITH_SPECIFIED_SOURCE('1','LAST_VERSION',#466,
.MADE.);
#471=PRODUCT_CATEGORY('part','');
#472=PRODUCT_RELATED_PRODUCT_CATEGORY('detail','',(#466));
#473=PRODUCT_CATEGORY_RELATIONSHIP('','',#471,#472);
#474=SECURITY_CLASSIFICATION_LEVEL('unclassified');
#475=SECURITY_CLASSIFICATION('','',#474);
#476=CC_DESIGN_SECURITY_CLASSIFICATION(#475,(#467));
#477=APPROVAL_STATUS('approved');
#478=APPROVAL(#477,'');
#479=CC_DESIGN_APPROVAL(#478,(#475,#467,#468));
#480=CALENDAR_DATE(112,10,8);
#481=COORDINATED_UNIVERSAL_TIME_OFFSET(7,0,.BEHIND.);
#482=LOCAL_TIME(9,34,2.4E1,#481);
#483=DATE_AND_TIME(#480,#482);
#484=APPROVAL_DATE_TIME(#483,#478);
#485=DATE_TIME_ROLE('creation_date');
#486=CC_DESIGN_DATE_AND_TIME_ASSIGNMENT(#483,#485,(#468));
#487=DATE_TIME_ROLE('classification_date');
#488=CC_DESIGN_DATE_AND_TIME_ASSIGNMENT(#483,#487,(#475));
#489=PERSON('UNSPECIFIED','UNSPECIFIED',$,$,$,$);
#490=ORGANIZATION('UNSPECIFIED','UNSPECIFIED','UNSPECIFIED');
#491=PERSON_AND_ORGANIZATION(#489,#490);
#492=APPROVAL_ROLE('approver');
#493=APPROVAL_PERSON_ORGANIZATION(#491,#478,#492);
#494=PERSON_AND_ORGANIZATION_ROLE('creator');
#495=CC_DESIGN_PERSON_AND_ORGANIZATION_ASSIGNMENT(#491,#494,(#467,#468));
#496=PERSON_AND_ORGANIZATION_ROLE('design_supplier');
#497=CC_DESIGN_PERSON_AND_ORGANIZATION_ASSIGNMENT(#491,#496,(#467));
#498=PERSON_AND_ORGANIZATION_ROLE('classification_officer');
#499=CC_DESIGN_PERSON_AND_ORGANIZATION_ASSIGNMENT(#491,#498,(#475));
#500=PERSON_AND_ORGANIZATION_ROLE('design_owner');
#501=CC_DESIGN_PERSON_AND_ORGANIZATION_ASSIGNMENT(#491,#500,(#466));
#5=CIRCLE('',#4,4.5E0);
#10=CIRCLE('',#9,4.5E0);
#15=CIRCLE('',#14,4.5E0);
#24=CIRCLE('',#23,4.E0);
#29=CIRCLE('',#28,4.E0);
#38=CIRCLE('',#37,4.E0);
#43=CIRCLE('',#42,4.E0);
#52=CIRCLE('',#51,4.E0);
#57=CIRCLE('',#56,4.E0);
#62=CIRCLE('',#61,4.5E0);
#71=CIRCLE('',#70,4.E0);
#76=CIRCLE('',#75,4.E0);
#81=CIRCLE('',#80,4.5E0);
#90=CIRCLE('',#89,4.5E0);
#99=CIRCLE('',#98,4.5E0);
#104=CIRCLE('',#103,4.5E0);
#109=CIRCLE('',#108,3.5E-1);
#114=CIRCLE('',#113,3.5E-1);
#119=CIRCLE('',#118,3.5E-1);
#124=CIRCLE('',#123,3.5E-1);
#137=CIRCLE('',#136,3.5E-1);
#142=CIRCLE('',#141,3.5E-1);
#147=CIRCLE('',#146,3.5E-1);
#152=CIRCLE('',#151,3.5E-1);
#206=EDGE_CURVE('',#167,#168,#5,.T.);
#208=EDGE_CURVE('',#168,#167,#10,.T.);
#212=ADVANCED_FACE('',(#211),#205,.F.);
#218=EDGE_CURVE('',#176,#175,#15,.T.);
#220=EDGE_CURVE('',#167,#176,#19,.T.);
#223=EDGE_CURVE('',#168,#175,#66,.T.);
#227=ADVANCED_FACE('',(#226),#217,.T.);
#233=EDGE_CURVE('',#172,#171,#29,.T.);
#235=EDGE_CURVE('',#172,#176,#24,.T.);
#238=EDGE_CURVE('',#171,#175,#57,.T.);
#242=ADVANCED_FACE('',(#241),#232,.F.);
#249=EDGE_CURVE('',#171,#180,#33,.T.);
#251=EDGE_CURVE('',#180,#179,#38,.T.);
#253=EDGE_CURVE('',#172,#179,#47,.T.);
#257=ADVANCED_FACE('',(#256),#247,.T.);
#263=EDGE_CURVE('',#171,#172,#43,.T.);
#266=EDGE_CURVE('',#179,#180,#52,.T.);
#271=ADVANCED_FACE('',(#270),#262,.T.);
#279=EDGE_CURVE('',#175,#176,#62,.T.);
#284=ADVANCED_FACE('',(#283),#276,.F.);
#296=ADVANCED_FACE('',(#295),#289,.T.);
#303=EDGE_CURVE('',#179,#183,#71,.T.);
#305=EDGE_CURVE('',#183,#184,#90,.T.);
#307=EDGE_CURVE('',#180,#184,#76,.T.);
#311=ADVANCED_FACE('',(#310),#301,.F.);
#319=EDGE_CURVE('',#184,#183,#81,.T.);
#324=ADVANCED_FACE('',(#323),#316,.F.);
#331=EDGE_CURVE('',#163,#184,#85,.T.);
#333=EDGE_CURVE('',#163,#164,#99,.T.);
#335=EDGE_CURVE('',#164,#183,#94,.T.);
#339=ADVANCED_FACE('',(#338),#329,.T.);
#347=EDGE_CURVE('',#164,#163,#104,.T.);
#352=ADVANCED_FACE('',(#351),#344,.T.);
#362=EDGE_CURVE('',#195,#196,#109,.T.);
#364=EDGE_CURVE('',#196,#195,#114,.T.);
#368=EDGE_CURVE('',#199,#200,#119,.T.);
#370=EDGE_CURVE('',#200,#199,#124,.T.);
#374=ADVANCED_FACE('',(#361,#367,#373),#357,.T.);
#381=EDGE_CURVE('',#195,#187,#128,.T.);
#383=EDGE_CURVE('',#187,#188,#137,.T.);
#385=EDGE_CURVE('',#196,#188,#132,.T.);
#389=ADVANCED_FACE('',(#388),#379,.T.);
#397=EDGE_CURVE('',#188,#187,#142,.T.);
#402=ADVANCED_FACE('',(#401),#394,.T.);
#412=ADVANCED_FACE('',(#411),#407,.T.);
#418=EDGE_CURVE('',#191,#192,#147,.T.);
#420=EDGE_CURVE('',#192,#191,#152,.T.);
#424=ADVANCED_FACE('',(#423),#417,.T.);
#431=EDGE_CURVE('',#199,#191,#156,.T.);
#434=EDGE_CURVE('',#200,#192,#160,.T.);
#438=ADVANCED_FACE('',(#437),#429,.T.);
#450=ADVANCED_FACE('',(#449),#443,.T.);
#453=(LENGTH_UNIT()NAMED_UNIT(*)SI_UNIT(.MILLI.,.METRE.));
#455=(NAMED_UNIT(*)PLANE_ANGLE_UNIT()SI_UNIT($,.RADIAN.));
#458=(NAMED_UNIT(*)SI_UNIT($,.STERADIAN.)SOLID_ANGLE_UNIT());
#460=(GEOMETRIC_REPRESENTATION_CONTEXT(3)GLOBAL_UNCERTAINTY_ASSIGNED_CONTEXT((
#459))GLOBAL_UNIT_ASSIGNED_CONTEXT((#453,#457,#458))REPRESENTATION_CONTEXT
('ID1','3'));
#461=ADVANCED_BREP_SHAPE_REPRESENTATION('',(#452),#460);
#468=PRODUCT_DEFINITION('design','',#467,#464);
#469=PRODUCT_DEFINITION_SHAPE('','SHAPE FOR 6000.',#468);
#470=SHAPE_DEFINITION_REPRESENTATION(#469,#461);
ENDSEC;
END-ISO-10303-21;
