ISO-10303-21;
HEADER;
FILE_DESCRIPTION((''),'2;1');
FILE_NAME('70F252AL-RC','2012-08-07T',('ryans'),('Bourns, Inc.'),
'PRO/ENGINEER BY PARAMETRIC TECHNOLOGY CORPORATION, 2010100',
'PRO/ENGINEER BY PARAMETRIC TECHNOLOGY CORPORATION, 2010100','');
FILE_SCHEMA(('CONFIG_CONTROL_DESIGN'));
ENDSEC;
DATA;
#1=CARTESIAN_POINT('',(0.E0,0.E0,-2.5E-1));
#2=DIRECTION('',(0.E0,0.E0,1.E0));
#3=DIRECTION('',(1.E0,0.E0,0.E0));
#4=AXIS2_PLACEMENT_3D('',#1,#2,#3);
#6=CARTESIAN_POINT('',(0.E0,0.E0,-2.5E-1));
#7=DIRECTION('',(0.E0,0.E0,1.E0));
#8=DIRECTION('',(-1.E0,0.E0,0.E0));
#9=AXIS2_PLACEMENT_3D('',#6,#7,#8);
#11=CARTESIAN_POINT('',(0.E0,0.E0,-2.5E-1));
#12=DIRECTION('',(0.E0,0.E0,1.E0));
#13=DIRECTION('',(1.E0,0.E0,0.E0));
#14=AXIS2_PLACEMENT_3D('',#11,#12,#13);
#16=CARTESIAN_POINT('',(0.E0,0.E0,-2.5E-1));
#17=DIRECTION('',(0.E0,0.E0,1.E0));
#18=DIRECTION('',(-1.E0,0.E0,0.E0));
#19=AXIS2_PLACEMENT_3D('',#16,#17,#18);
#21=CARTESIAN_POINT('',(0.E0,0.E0,-7.75E-2));
#22=DIRECTION('',(0.E0,0.E0,1.E0));
#23=DIRECTION('',(1.E0,0.E0,0.E0));
#24=AXIS2_PLACEMENT_3D('',#21,#22,#23);
#26=DIRECTION('',(0.E0,0.E0,1.E0));
#27=VECTOR('',#26,1.725E-1);
#28=CARTESIAN_POINT('',(1.E-1,0.E0,-2.5E-1));
#29=LINE('',#28,#27);
#30=CARTESIAN_POINT('',(0.E0,0.E0,7.75E-2));
#31=DIRECTION('',(0.E0,0.E0,1.E0));
#32=DIRECTION('',(1.E0,0.E0,0.E0));
#33=AXIS2_PLACEMENT_3D('',#30,#31,#32);
#35=DIRECTION('',(0.E0,0.E0,1.E0));
#36=VECTOR('',#35,1.725E-1);
#37=CARTESIAN_POINT('',(1.E-1,0.E0,7.75E-2));
#38=LINE('',#37,#36);
#39=CARTESIAN_POINT('',(0.E0,0.E0,-7.75E-2));
#40=DIRECTION('',(0.E0,0.E0,1.E0));
#41=DIRECTION('',(1.E0,0.E0,0.E0));
#42=AXIS2_PLACEMENT_3D('',#39,#40,#41);
#44=CARTESIAN_POINT('',(0.E0,0.E0,-7.75E-2));
#45=DIRECTION('',(0.E0,0.E0,1.E0));
#46=DIRECTION('',(-1.E0,0.E0,0.E0));
#47=AXIS2_PLACEMENT_3D('',#44,#45,#46);
#49=DIRECTION('',(0.E0,0.E0,1.E0));
#50=VECTOR('',#49,1.55E-1);
#51=CARTESIAN_POINT('',(1.6E-1,0.E0,-7.75E-2));
#52=LINE('',#51,#50);
#53=DIRECTION('',(0.E0,0.E0,1.E0));
#54=VECTOR('',#53,1.55E-1);
#55=CARTESIAN_POINT('',(-1.6E-1,0.E0,-7.75E-2));
#56=LINE('',#55,#54);
#57=CARTESIAN_POINT('',(0.E0,0.E0,7.75E-2));
#58=DIRECTION('',(0.E0,0.E0,1.E0));
#59=DIRECTION('',(1.E0,0.E0,0.E0));
#60=AXIS2_PLACEMENT_3D('',#57,#58,#59);
#62=CARTESIAN_POINT('',(0.E0,0.E0,7.75E-2));
#63=DIRECTION('',(0.E0,0.E0,1.E0));
#64=DIRECTION('',(-1.E0,0.E0,0.E0));
#65=AXIS2_PLACEMENT_3D('',#62,#63,#64);
#67=CARTESIAN_POINT('',(0.E0,0.E0,-7.75E-2));
#68=DIRECTION('',(0.E0,0.E0,1.E0));
#69=DIRECTION('',(-1.E0,0.E0,0.E0));
#70=AXIS2_PLACEMENT_3D('',#67,#68,#69);
#72=DIRECTION('',(0.E0,0.E0,1.E0));
#73=VECTOR('',#72,1.725E-1);
#74=CARTESIAN_POINT('',(-1.E-1,0.E0,-2.5E-1));
#75=LINE('',#74,#73);
#76=CARTESIAN_POINT('',(0.E0,0.E0,7.75E-2));
#77=DIRECTION('',(0.E0,0.E0,1.E0));
#78=DIRECTION('',(-1.E0,0.E0,0.E0));
#79=AXIS2_PLACEMENT_3D('',#76,#77,#78);
#81=DIRECTION('',(0.E0,0.E0,1.E0));
#82=VECTOR('',#81,1.725E-1);
#83=CARTESIAN_POINT('',(-1.E-1,0.E0,7.75E-2));
#84=LINE('',#83,#82);
#85=CARTESIAN_POINT('',(0.E0,0.E0,2.5E-1));
#86=DIRECTION('',(0.E0,0.E0,1.E0));
#87=DIRECTION('',(1.E0,0.E0,0.E0));
#88=AXIS2_PLACEMENT_3D('',#85,#86,#87);
#90=CARTESIAN_POINT('',(0.E0,0.E0,2.5E-1));
#91=DIRECTION('',(0.E0,0.E0,1.E0));
#92=DIRECTION('',(-1.E0,0.E0,0.E0));
#93=AXIS2_PLACEMENT_3D('',#90,#91,#92);
#95=CARTESIAN_POINT('',(0.E0,0.E0,2.5E-1));
#96=DIRECTION('',(0.E0,0.E0,1.E0));
#97=DIRECTION('',(1.E0,0.E0,0.E0));
#98=AXIS2_PLACEMENT_3D('',#95,#96,#97);
#100=CARTESIAN_POINT('',(0.E0,0.E0,2.5E-1));
#101=DIRECTION('',(0.E0,0.E0,1.E0));
#102=DIRECTION('',(-1.E0,0.E0,0.E0));
#103=AXIS2_PLACEMENT_3D('',#100,#101,#102);
#105=DIRECTION('',(0.E0,0.E0,1.E0));
#106=VECTOR('',#105,1.25E0);
#107=CARTESIAN_POINT('',(1.25E-2,0.E0,-1.5E0));
#108=LINE('',#107,#106);
#109=DIRECTION('',(0.E0,0.E0,1.E0));
#110=VECTOR('',#109,1.25E0);
#111=CARTESIAN_POINT('',(1.25E-2,0.E0,2.5E-1));
#112=LINE('',#111,#110);
#113=DIRECTION('',(0.E0,0.E0,1.E0));
#114=VECTOR('',#113,1.25E0);
#115=CARTESIAN_POINT('',(-1.25E-2,0.E0,-1.5E0));
#116=LINE('',#115,#114);
#117=DIRECTION('',(0.E0,0.E0,1.E0));
#118=VECTOR('',#117,1.25E0);
#119=CARTESIAN_POINT('',(-1.25E-2,0.E0,2.5E-1));
#120=LINE('',#119,#118);
#121=CARTESIAN_POINT('',(0.E0,0.E0,-1.5E0));
#122=DIRECTION('',(0.E0,0.E0,1.E0));
#123=DIRECTION('',(1.E0,0.E0,0.E0));
#124=AXIS2_PLACEMENT_3D('',#121,#122,#123);
#126=CARTESIAN_POINT('',(0.E0,0.E0,-1.5E0));
#127=DIRECTION('',(0.E0,0.E0,1.E0));
#128=DIRECTION('',(-1.E0,0.E0,0.E0));
#129=AXIS2_PLACEMENT_3D('',#126,#127,#128);
#131=CARTESIAN_POINT('',(0.E0,0.E0,1.5E0));
#132=DIRECTION('',(0.E0,0.E0,1.E0));
#133=DIRECTION('',(1.E0,0.E0,0.E0));
#134=AXIS2_PLACEMENT_3D('',#131,#132,#133);
#136=CARTESIAN_POINT('',(0.E0,0.E0,1.5E0));
#137=DIRECTION('',(0.E0,0.E0,1.E0));
#138=DIRECTION('',(-1.E0,0.E0,0.E0));
#139=AXIS2_PLACEMENT_3D('',#136,#137,#138);
#141=CARTESIAN_POINT('',(1.E-1,0.E0,-2.5E-1));
#142=CARTESIAN_POINT('',(-1.E-1,0.E0,-2.5E-1));
#143=VERTEX_POINT('',#141);
#144=VERTEX_POINT('',#142);
#145=CARTESIAN_POINT('',(1.E-1,0.E0,2.5E-1));
#146=CARTESIAN_POINT('',(-1.E-1,0.E0,2.5E-1));
#147=VERTEX_POINT('',#145);
#148=VERTEX_POINT('',#146);
#149=CARTESIAN_POINT('',(1.6E-1,0.E0,-7.75E-2));
#150=CARTESIAN_POINT('',(-1.6E-1,0.E0,-7.75E-2));
#151=VERTEX_POINT('',#149);
#152=VERTEX_POINT('',#150);
#153=CARTESIAN_POINT('',(1.6E-1,0.E0,7.75E-2));
#154=CARTESIAN_POINT('',(-1.6E-1,0.E0,7.75E-2));
#155=VERTEX_POINT('',#153);
#156=VERTEX_POINT('',#154);
#157=CARTESIAN_POINT('',(1.E-1,0.E0,-7.75E-2));
#158=CARTESIAN_POINT('',(-1.E-1,0.E0,-7.75E-2));
#159=VERTEX_POINT('',#157);
#160=VERTEX_POINT('',#158);
#161=CARTESIAN_POINT('',(1.E-1,0.E0,7.75E-2));
#162=CARTESIAN_POINT('',(-1.E-1,0.E0,7.75E-2));
#163=VERTEX_POINT('',#161);
#164=VERTEX_POINT('',#162);
#165=CARTESIAN_POINT('',(1.25E-2,0.E0,-1.5E0));
#166=CARTESIAN_POINT('',(-1.25E-2,0.E0,-1.5E0));
#167=VERTEX_POINT('',#165);
#168=VERTEX_POINT('',#166);
#169=CARTESIAN_POINT('',(1.25E-2,0.E0,1.5E0));
#170=CARTESIAN_POINT('',(-1.25E-2,0.E0,1.5E0));
#171=VERTEX_POINT('',#169);
#172=VERTEX_POINT('',#170);
#173=CARTESIAN_POINT('',(1.25E-2,0.E0,-2.5E-1));
#174=CARTESIAN_POINT('',(-1.25E-2,0.E0,-2.5E-1));
#175=VERTEX_POINT('',#173);
#176=VERTEX_POINT('',#174);
#177=CARTESIAN_POINT('',(1.25E-2,0.E0,2.5E-1));
#178=CARTESIAN_POINT('',(-1.25E-2,0.E0,2.5E-1));
#179=VERTEX_POINT('',#177);
#180=VERTEX_POINT('',#178);
#181=CARTESIAN_POINT('',(0.E0,0.E0,-2.5E-1));
#182=DIRECTION('',(0.E0,0.E0,1.E0));
#183=DIRECTION('',(1.E0,0.E0,0.E0));
#184=AXIS2_PLACEMENT_3D('',#181,#182,#183);
#185=PLANE('',#184);
#187=ORIENTED_EDGE('',*,*,#186,.T.);
#189=ORIENTED_EDGE('',*,*,#188,.T.);
#190=EDGE_LOOP('',(#187,#189));
#191=FACE_OUTER_BOUND('',#190,.F.);
#193=ORIENTED_EDGE('',*,*,#192,.F.);
#195=ORIENTED_EDGE('',*,*,#194,.F.);
#196=EDGE_LOOP('',(#193,#195));
#197=FACE_BOUND('',#196,.F.);
#199=CARTESIAN_POINT('',(0.E0,0.E0,-2.5E-1));
#200=DIRECTION('',(0.E0,0.E0,1.E0));
#201=DIRECTION('',(1.E0,0.E0,0.E0));
#202=AXIS2_PLACEMENT_3D('',#199,#200,#201);
#203=CYLINDRICAL_SURFACE('',#202,1.E-1);
#205=ORIENTED_EDGE('',*,*,#204,.T.);
#207=ORIENTED_EDGE('',*,*,#206,.F.);
#208=ORIENTED_EDGE('',*,*,#186,.F.);
#210=ORIENTED_EDGE('',*,*,#209,.T.);
#211=EDGE_LOOP('',(#205,#207,#208,#210));
#212=FACE_OUTER_BOUND('',#211,.F.);
#214=CARTESIAN_POINT('',(0.E0,0.E0,-2.5E-1));
#215=DIRECTION('',(0.E0,0.E0,1.E0));
#216=DIRECTION('',(1.E0,0.E0,0.E0));
#217=AXIS2_PLACEMENT_3D('',#214,#215,#216);
#218=CYLINDRICAL_SURFACE('',#217,1.E-1);
#220=ORIENTED_EDGE('',*,*,#219,.F.);
#222=ORIENTED_EDGE('',*,*,#221,.T.);
#224=ORIENTED_EDGE('',*,*,#223,.T.);
#226=ORIENTED_EDGE('',*,*,#225,.F.);
#227=EDGE_LOOP('',(#220,#222,#224,#226));
#228=FACE_OUTER_BOUND('',#227,.F.);
#230=CARTESIAN_POINT('',(0.E0,0.E0,-7.75E-2));
#231=DIRECTION('',(0.E0,0.E0,1.E0));
#232=DIRECTION('',(1.E0,0.E0,0.E0));
#233=AXIS2_PLACEMENT_3D('',#230,#231,#232);
#234=PLANE('',#233);
#236=ORIENTED_EDGE('',*,*,#235,.T.);
#238=ORIENTED_EDGE('',*,*,#237,.T.);
#239=EDGE_LOOP('',(#236,#238));
#240=FACE_OUTER_BOUND('',#239,.F.);
#241=ORIENTED_EDGE('',*,*,#204,.F.);
#243=ORIENTED_EDGE('',*,*,#242,.F.);
#244=EDGE_LOOP('',(#241,#243));
#245=FACE_BOUND('',#244,.F.);
#247=CARTESIAN_POINT('',(0.E0,0.E0,-7.75E-2));
#248=DIRECTION('',(0.E0,0.E0,1.E0));
#249=DIRECTION('',(1.E0,0.E0,0.E0));
#250=AXIS2_PLACEMENT_3D('',#247,#248,#249);
#251=CYLINDRICAL_SURFACE('',#250,1.6E-1);
#252=ORIENTED_EDGE('',*,*,#235,.F.);
#254=ORIENTED_EDGE('',*,*,#253,.T.);
#256=ORIENTED_EDGE('',*,*,#255,.T.);
#258=ORIENTED_EDGE('',*,*,#257,.F.);
#259=EDGE_LOOP('',(#252,#254,#256,#258));
#260=FACE_OUTER_BOUND('',#259,.F.);
#262=CARTESIAN_POINT('',(0.E0,0.E0,-7.75E-2));
#263=DIRECTION('',(0.E0,0.E0,1.E0));
#264=DIRECTION('',(1.E0,0.E0,0.E0));
#265=AXIS2_PLACEMENT_3D('',#262,#263,#264);
#266=CYLINDRICAL_SURFACE('',#265,1.6E-1);
#267=ORIENTED_EDGE('',*,*,#237,.F.);
#268=ORIENTED_EDGE('',*,*,#257,.T.);
#270=ORIENTED_EDGE('',*,*,#269,.T.);
#271=ORIENTED_EDGE('',*,*,#253,.F.);
#272=EDGE_LOOP('',(#267,#268,#270,#271));
#273=FACE_OUTER_BOUND('',#272,.F.);
#275=CARTESIAN_POINT('',(0.E0,0.E0,7.75E-2));
#276=DIRECTION('',(0.E0,0.E0,1.E0));
#277=DIRECTION('',(1.E0,0.E0,0.E0));
#278=AXIS2_PLACEMENT_3D('',#275,#276,#277);
#279=PLANE('',#278);
#280=ORIENTED_EDGE('',*,*,#255,.F.);
#281=ORIENTED_EDGE('',*,*,#269,.F.);
#282=EDGE_LOOP('',(#280,#281));
#283=FACE_OUTER_BOUND('',#282,.F.);
#284=ORIENTED_EDGE('',*,*,#219,.T.);
#286=ORIENTED_EDGE('',*,*,#285,.T.);
#287=EDGE_LOOP('',(#284,#286));
#288=FACE_BOUND('',#287,.F.);
#290=CARTESIAN_POINT('',(0.E0,0.E0,-2.5E-1));
#291=DIRECTION('',(0.E0,0.E0,1.E0));
#292=DIRECTION('',(1.E0,0.E0,0.E0));
#293=AXIS2_PLACEMENT_3D('',#290,#291,#292);
#294=CYLINDRICAL_SURFACE('',#293,1.E-1);
#295=ORIENTED_EDGE('',*,*,#242,.T.);
#296=ORIENTED_EDGE('',*,*,#209,.F.);
#297=ORIENTED_EDGE('',*,*,#188,.F.);
#298=ORIENTED_EDGE('',*,*,#206,.T.);
#299=EDGE_LOOP('',(#295,#296,#297,#298));
#300=FACE_OUTER_BOUND('',#299,.F.);
#302=CARTESIAN_POINT('',(0.E0,0.E0,-2.5E-1));
#303=DIRECTION('',(0.E0,0.E0,1.E0));
#304=DIRECTION('',(1.E0,0.E0,0.E0));
#305=AXIS2_PLACEMENT_3D('',#302,#303,#304);
#306=CYLINDRICAL_SURFACE('',#305,1.E-1);
#307=ORIENTED_EDGE('',*,*,#285,.F.);
#308=ORIENTED_EDGE('',*,*,#225,.T.);
#310=ORIENTED_EDGE('',*,*,#309,.T.);
#311=ORIENTED_EDGE('',*,*,#221,.F.);
#312=EDGE_LOOP('',(#307,#308,#310,#311));
#313=FACE_OUTER_BOUND('',#312,.F.);
#315=CARTESIAN_POINT('',(0.E0,0.E0,2.5E-1));
#316=DIRECTION('',(0.E0,0.E0,1.E0));
#317=DIRECTION('',(1.E0,0.E0,0.E0));
#318=AXIS2_PLACEMENT_3D('',#315,#316,#317);
#319=PLANE('',#318);
#320=ORIENTED_EDGE('',*,*,#223,.F.);
#321=ORIENTED_EDGE('',*,*,#309,.F.);
#322=EDGE_LOOP('',(#320,#321));
#323=FACE_OUTER_BOUND('',#322,.F.);
#325=ORIENTED_EDGE('',*,*,#324,.T.);
#327=ORIENTED_EDGE('',*,*,#326,.T.);
#328=EDGE_LOOP('',(#325,#327));
#329=FACE_BOUND('',#328,.F.);
#331=CARTESIAN_POINT('',(0.E0,0.E0,-1.5E0));
#332=DIRECTION('',(0.E0,0.E0,1.E0));
#333=DIRECTION('',(1.E0,0.E0,0.E0));
#334=AXIS2_PLACEMENT_3D('',#331,#332,#333);
#335=CYLINDRICAL_SURFACE('',#334,1.25E-2);
#336=ORIENTED_EDGE('',*,*,#192,.T.);
#338=ORIENTED_EDGE('',*,*,#337,.F.);
#340=ORIENTED_EDGE('',*,*,#339,.F.);
#342=ORIENTED_EDGE('',*,*,#341,.T.);
#343=EDGE_LOOP('',(#336,#338,#340,#342));
#344=FACE_OUTER_BOUND('',#343,.F.);
#346=CARTESIAN_POINT('',(0.E0,0.E0,-1.5E0));
#347=DIRECTION('',(0.E0,0.E0,1.E0));
#348=DIRECTION('',(1.E0,0.E0,0.E0));
#349=AXIS2_PLACEMENT_3D('',#346,#347,#348);
#350=CYLINDRICAL_SURFACE('',#349,1.25E-2);
#351=ORIENTED_EDGE('',*,*,#324,.F.);
#353=ORIENTED_EDGE('',*,*,#352,.T.);
#355=ORIENTED_EDGE('',*,*,#354,.T.);
#357=ORIENTED_EDGE('',*,*,#356,.F.);
#358=EDGE_LOOP('',(#351,#353,#355,#357));
#359=FACE_OUTER_BOUND('',#358,.F.);
#361=CARTESIAN_POINT('',(0.E0,0.E0,-1.5E0));
#362=DIRECTION('',(0.E0,0.E0,1.E0));
#363=DIRECTION('',(1.E0,0.E0,0.E0));
#364=AXIS2_PLACEMENT_3D('',#361,#362,#363);
#365=CYLINDRICAL_SURFACE('',#364,1.25E-2);
#366=ORIENTED_EDGE('',*,*,#194,.T.);
#367=ORIENTED_EDGE('',*,*,#341,.F.);
#369=ORIENTED_EDGE('',*,*,#368,.F.);
#370=ORIENTED_EDGE('',*,*,#337,.T.);
#371=EDGE_LOOP('',(#366,#367,#369,#370));
#372=FACE_OUTER_BOUND('',#371,.F.);
#374=CARTESIAN_POINT('',(0.E0,0.E0,-1.5E0));
#375=DIRECTION('',(0.E0,0.E0,1.E0));
#376=DIRECTION('',(1.E0,0.E0,0.E0));
#377=AXIS2_PLACEMENT_3D('',#374,#375,#376);
#378=CYLINDRICAL_SURFACE('',#377,1.25E-2);
#379=ORIENTED_EDGE('',*,*,#326,.F.);
#380=ORIENTED_EDGE('',*,*,#356,.T.);
#382=ORIENTED_EDGE('',*,*,#381,.T.);
#383=ORIENTED_EDGE('',*,*,#352,.F.);
#384=EDGE_LOOP('',(#379,#380,#382,#383));
#385=FACE_OUTER_BOUND('',#384,.F.);
#387=CARTESIAN_POINT('',(0.E0,0.E0,-1.5E0));
#388=DIRECTION('',(0.E0,0.E0,1.E0));
#389=DIRECTION('',(1.E0,0.E0,0.E0));
#390=AXIS2_PLACEMENT_3D('',#387,#388,#389);
#391=PLANE('',#390);
#392=ORIENTED_EDGE('',*,*,#339,.T.);
#393=ORIENTED_EDGE('',*,*,#368,.T.);
#394=EDGE_LOOP('',(#392,#393));
#395=FACE_OUTER_BOUND('',#394,.F.);
#397=CARTESIAN_POINT('',(0.E0,0.E0,1.5E0));
#398=DIRECTION('',(0.E0,0.E0,1.E0));
#399=DIRECTION('',(1.E0,0.E0,0.E0));
#400=AXIS2_PLACEMENT_3D('',#397,#398,#399);
#401=PLANE('',#400);
#402=ORIENTED_EDGE('',*,*,#354,.F.);
#403=ORIENTED_EDGE('',*,*,#381,.F.);
#404=EDGE_LOOP('',(#402,#403));
#405=FACE_OUTER_BOUND('',#404,.F.);
#407=CLOSED_SHELL('',(#198,#213,#229,#246,#261,#274,#289,#301,#314,#330,#345,
#360,#373,#386,#396,#406));
#408=MANIFOLD_SOLID_BREP('',#407);
#410=DIMENSIONAL_EXPONENTS(0.E0,0.E0,0.E0,0.E0,0.E0,0.E0,0.E0);
#412=PLANE_ANGLE_MEASURE_WITH_UNIT(PLANE_ANGLE_MEASURE(1.745329251994E-2),#411);
#413=(CONVERSION_BASED_UNIT('DEGREE',#412)NAMED_UNIT(*)PLANE_ANGLE_UNIT());
#415=UNCERTAINTY_MEASURE_WITH_UNIT(LENGTH_MEASURE(1.264091655565E-4),#409,
'closure',
'Maximum model space distance between geometric entities at asserted connectivities');
#418=APPLICATION_CONTEXT(
'CONFIGURATION CONTROLLED 3D DESIGNS OF MECHANICAL PARTS AND ASSEMBLIES');
#419=APPLICATION_PROTOCOL_DEFINITION('international standard',
'config_control_design',1994,#418);
#420=DESIGN_CONTEXT('',#418,'design');
#421=MECHANICAL_CONTEXT('',#418,'mechanical');
#422=PRODUCT('70F252AL-RC','70F252AL-RC','NOT SPECIFIED',(#421));
#423=PRODUCT_DEFINITION_FORMATION_WITH_SPECIFIED_SOURCE('1','LAST_VERSION',#422,
.MADE.);
#427=PRODUCT_CATEGORY('part','');
#428=PRODUCT_RELATED_PRODUCT_CATEGORY('detail','',(#422));
#429=PRODUCT_CATEGORY_RELATIONSHIP('','',#427,#428);
#430=SECURITY_CLASSIFICATION_LEVEL('unclassified');
#431=SECURITY_CLASSIFICATION('','',#430);
#432=CC_DESIGN_SECURITY_CLASSIFICATION(#431,(#423));
#433=APPROVAL_STATUS('approved');
#434=APPROVAL(#433,'');
#435=CC_DESIGN_APPROVAL(#434,(#431,#423,#424));
#436=CALENDAR_DATE(112,7,8);
#437=COORDINATED_UNIVERSAL_TIME_OFFSET(7,0,.BEHIND.);
#438=LOCAL_TIME(14,48,2.6E1,#437);
#439=DATE_AND_TIME(#436,#438);
#440=APPROVAL_DATE_TIME(#439,#434);
#441=DATE_TIME_ROLE('creation_date');
#442=CC_DESIGN_DATE_AND_TIME_ASSIGNMENT(#439,#441,(#424));
#443=DATE_TIME_ROLE('classification_date');
#444=CC_DESIGN_DATE_AND_TIME_ASSIGNMENT(#439,#443,(#431));
#445=PERSON('UNSPECIFIED','UNSPECIFIED',$,$,$,$);
#446=ORGANIZATION('UNSPECIFIED','UNSPECIFIED','UNSPECIFIED');
#447=PERSON_AND_ORGANIZATION(#445,#446);
#448=APPROVAL_ROLE('approver');
#449=APPROVAL_PERSON_ORGANIZATION(#447,#434,#448);
#450=PERSON_AND_ORGANIZATION_ROLE('creator');
#451=CC_DESIGN_PERSON_AND_ORGANIZATION_ASSIGNMENT(#447,#450,(#423,#424));
#452=PERSON_AND_ORGANIZATION_ROLE('design_supplier');
#453=CC_DESIGN_PERSON_AND_ORGANIZATION_ASSIGNMENT(#447,#452,(#423));
#454=PERSON_AND_ORGANIZATION_ROLE('classification_officer');
#455=CC_DESIGN_PERSON_AND_ORGANIZATION_ASSIGNMENT(#447,#454,(#431));
#456=PERSON_AND_ORGANIZATION_ROLE('design_owner');
#457=CC_DESIGN_PERSON_AND_ORGANIZATION_ASSIGNMENT(#447,#456,(#422));
#5=CIRCLE('',#4,1.E-1);
#10=CIRCLE('',#9,1.E-1);
#15=CIRCLE('',#14,1.25E-2);
#20=CIRCLE('',#19,1.25E-2);
#25=CIRCLE('',#24,1.E-1);
#34=CIRCLE('',#33,1.E-1);
#43=CIRCLE('',#42,1.6E-1);
#48=CIRCLE('',#47,1.6E-1);
#61=CIRCLE('',#60,1.6E-1);
#66=CIRCLE('',#65,1.6E-1);
#71=CIRCLE('',#70,1.E-1);
#80=CIRCLE('',#79,1.E-1);
#89=CIRCLE('',#88,1.E-1);
#94=CIRCLE('',#93,1.E-1);
#99=CIRCLE('',#98,1.25E-2);
#104=CIRCLE('',#103,1.25E-2);
#125=CIRCLE('',#124,1.25E-2);
#130=CIRCLE('',#129,1.25E-2);
#135=CIRCLE('',#134,1.25E-2);
#140=CIRCLE('',#139,1.25E-2);
#186=EDGE_CURVE('',#143,#144,#5,.T.);
#188=EDGE_CURVE('',#144,#143,#10,.T.);
#192=EDGE_CURVE('',#175,#176,#15,.T.);
#194=EDGE_CURVE('',#176,#175,#20,.T.);
#198=ADVANCED_FACE('',(#191,#197),#185,.F.);
#204=EDGE_CURVE('',#159,#160,#25,.T.);
#206=EDGE_CURVE('',#144,#160,#75,.T.);
#209=EDGE_CURVE('',#143,#159,#29,.T.);
#213=ADVANCED_FACE('',(#212),#203,.T.);
#219=EDGE_CURVE('',#163,#164,#34,.T.);
#221=EDGE_CURVE('',#163,#147,#38,.T.);
#223=EDGE_CURVE('',#147,#148,#89,.T.);
#225=EDGE_CURVE('',#164,#148,#84,.T.);
#229=ADVANCED_FACE('',(#228),#218,.T.);
#235=EDGE_CURVE('',#151,#152,#43,.T.);
#237=EDGE_CURVE('',#152,#151,#48,.T.);
#242=EDGE_CURVE('',#160,#159,#71,.T.);
#246=ADVANCED_FACE('',(#240,#245),#234,.F.);
#253=EDGE_CURVE('',#151,#155,#52,.T.);
#255=EDGE_CURVE('',#155,#156,#61,.T.);
#257=EDGE_CURVE('',#152,#156,#56,.T.);
#261=ADVANCED_FACE('',(#260),#251,.T.);
#269=EDGE_CURVE('',#156,#155,#66,.T.);
#274=ADVANCED_FACE('',(#273),#266,.T.);
#285=EDGE_CURVE('',#164,#163,#80,.T.);
#289=ADVANCED_FACE('',(#283,#288),#279,.T.);
#301=ADVANCED_FACE('',(#300),#294,.T.);
#309=EDGE_CURVE('',#148,#147,#94,.T.);
#314=ADVANCED_FACE('',(#313),#306,.T.);
#324=EDGE_CURVE('',#179,#180,#99,.T.);
#326=EDGE_CURVE('',#180,#179,#104,.T.);
#330=ADVANCED_FACE('',(#323,#329),#319,.T.);
#337=EDGE_CURVE('',#168,#176,#116,.T.);
#339=EDGE_CURVE('',#167,#168,#125,.T.);
#341=EDGE_CURVE('',#167,#175,#108,.T.);
#345=ADVANCED_FACE('',(#344),#335,.T.);
#352=EDGE_CURVE('',#179,#171,#112,.T.);
#354=EDGE_CURVE('',#171,#172,#135,.T.);
#356=EDGE_CURVE('',#180,#172,#120,.T.);
#360=ADVANCED_FACE('',(#359),#350,.T.);
#368=EDGE_CURVE('',#168,#167,#130,.T.);
#373=ADVANCED_FACE('',(#372),#365,.T.);
#381=EDGE_CURVE('',#172,#171,#140,.T.);
#386=ADVANCED_FACE('',(#385),#378,.T.);
#396=ADVANCED_FACE('',(#395),#391,.F.);
#406=ADVANCED_FACE('',(#405),#401,.T.);
#409=(LENGTH_UNIT()NAMED_UNIT(*)SI_UNIT(.MILLI.,.METRE.));
#411=(NAMED_UNIT(*)PLANE_ANGLE_UNIT()SI_UNIT($,.RADIAN.));
#414=(NAMED_UNIT(*)SI_UNIT($,.STERADIAN.)SOLID_ANGLE_UNIT());
#416=(GEOMETRIC_REPRESENTATION_CONTEXT(3)GLOBAL_UNCERTAINTY_ASSIGNED_CONTEXT((
#415))GLOBAL_UNIT_ASSIGNED_CONTEXT((#409,#413,#414))REPRESENTATION_CONTEXT
('ID1','3'));
#417=ADVANCED_BREP_SHAPE_REPRESENTATION('',(#408),#416);
#424=PRODUCT_DEFINITION('design','',#423,#420);
#425=PRODUCT_DEFINITION_SHAPE('','SHAPE FOR 70F252AL-RC.',#424);
#426=SHAPE_DEFINITION_REPRESENTATION(#425,#417);
ENDSEC;
END-ISO-10303-21;
