ISO-10303-21;
HEADER;
FILE_DESCRIPTION((''),'2;1');
FILE_NAME('74F106AP-RC','2012-08-24T',('ryans'),('Bourns, Inc.'),
'PRO/ENGINEER BY PARAMETRIC TECHNOLOGY CORPORATION, 2010100',
'PRO/ENGINEER BY PARAMETRIC TECHNOLOGY CORPORATION, 2010100','');
FILE_SCHEMA(('CONFIG_CONTROL_DESIGN'));
ENDSEC;
DATA;
#1=CARTESIAN_POINT('',(0.E0,0.E0,-2.5E-1));
#2=DIRECTION('',(0.E0,0.E0,1.E0));
#3=DIRECTION('',(1.E0,0.E0,0.E0));
#4=AXIS2_PLACEMENT_3D('',#1,#2,#3);
#6=CARTESIAN_POINT('',(0.E0,0.E0,-2.5E-1));
#7=DIRECTION('',(0.E0,0.E0,1.E0));
#8=DIRECTION('',(-1.E0,0.E0,0.E0));
#9=AXIS2_PLACEMENT_3D('',#6,#7,#8);
#11=CARTESIAN_POINT('',(0.E0,0.E0,-2.5E-1));
#12=DIRECTION('',(0.E0,0.E0,1.E0));
#13=DIRECTION('',(1.E0,0.E0,0.E0));
#14=AXIS2_PLACEMENT_3D('',#11,#12,#13);
#16=CARTESIAN_POINT('',(0.E0,0.E0,-2.5E-1));
#17=DIRECTION('',(0.E0,0.E0,1.E0));
#18=DIRECTION('',(-1.E0,0.E0,0.E0));
#19=AXIS2_PLACEMENT_3D('',#16,#17,#18);
#21=DIRECTION('',(0.E0,0.E0,1.E0));
#22=VECTOR('',#21,5.E-1);
#23=CARTESIAN_POINT('',(1.E-1,0.E0,-2.5E-1));
#24=LINE('',#23,#22);
#25=DIRECTION('',(0.E0,0.E0,1.E0));
#26=VECTOR('',#25,5.E-1);
#27=CARTESIAN_POINT('',(-1.E-1,0.E0,-2.5E-1));
#28=LINE('',#27,#26);
#29=CARTESIAN_POINT('',(0.E0,0.E0,2.5E-1));
#30=DIRECTION('',(0.E0,0.E0,1.E0));
#31=DIRECTION('',(1.E0,0.E0,0.E0));
#32=AXIS2_PLACEMENT_3D('',#29,#30,#31);
#34=CARTESIAN_POINT('',(0.E0,0.E0,2.5E-1));
#35=DIRECTION('',(0.E0,0.E0,1.E0));
#36=DIRECTION('',(-1.E0,0.E0,0.E0));
#37=AXIS2_PLACEMENT_3D('',#34,#35,#36);
#39=CARTESIAN_POINT('',(0.E0,0.E0,2.5E-1));
#40=DIRECTION('',(0.E0,0.E0,1.E0));
#41=DIRECTION('',(1.E0,0.E0,0.E0));
#42=AXIS2_PLACEMENT_3D('',#39,#40,#41);
#44=CARTESIAN_POINT('',(0.E0,0.E0,2.5E-1));
#45=DIRECTION('',(0.E0,0.E0,1.E0));
#46=DIRECTION('',(-1.E0,0.E0,0.E0));
#47=AXIS2_PLACEMENT_3D('',#44,#45,#46);
#49=DIRECTION('',(0.E0,0.E0,1.E0));
#50=VECTOR('',#49,1.5E0);
#51=CARTESIAN_POINT('',(1.6E-2,0.E0,-1.75E0));
#52=LINE('',#51,#50);
#53=DIRECTION('',(0.E0,0.E0,1.E0));
#54=VECTOR('',#53,1.5E0);
#55=CARTESIAN_POINT('',(1.6E-2,0.E0,2.5E-1));
#56=LINE('',#55,#54);
#57=DIRECTION('',(0.E0,0.E0,1.E0));
#58=VECTOR('',#57,1.5E0);
#59=CARTESIAN_POINT('',(-1.6E-2,0.E0,-1.75E0));
#60=LINE('',#59,#58);
#61=DIRECTION('',(0.E0,0.E0,1.E0));
#62=VECTOR('',#61,1.5E0);
#63=CARTESIAN_POINT('',(-1.6E-2,0.E0,2.5E-1));
#64=LINE('',#63,#62);
#65=CARTESIAN_POINT('',(0.E0,0.E0,-1.75E0));
#66=DIRECTION('',(0.E0,0.E0,1.E0));
#67=DIRECTION('',(1.E0,0.E0,0.E0));
#68=AXIS2_PLACEMENT_3D('',#65,#66,#67);
#70=CARTESIAN_POINT('',(0.E0,0.E0,-1.75E0));
#71=DIRECTION('',(0.E0,0.E0,1.E0));
#72=DIRECTION('',(-1.E0,0.E0,0.E0));
#73=AXIS2_PLACEMENT_3D('',#70,#71,#72);
#75=CARTESIAN_POINT('',(0.E0,0.E0,1.75E0));
#76=DIRECTION('',(0.E0,0.E0,1.E0));
#77=DIRECTION('',(1.E0,0.E0,0.E0));
#78=AXIS2_PLACEMENT_3D('',#75,#76,#77);
#80=CARTESIAN_POINT('',(0.E0,0.E0,1.75E0));
#81=DIRECTION('',(0.E0,0.E0,1.E0));
#82=DIRECTION('',(-1.E0,0.E0,0.E0));
#83=AXIS2_PLACEMENT_3D('',#80,#81,#82);
#85=CARTESIAN_POINT('',(1.E-1,0.E0,-2.5E-1));
#86=CARTESIAN_POINT('',(-1.E-1,0.E0,-2.5E-1));
#87=VERTEX_POINT('',#85);
#88=VERTEX_POINT('',#86);
#89=CARTESIAN_POINT('',(1.E-1,0.E0,2.5E-1));
#90=CARTESIAN_POINT('',(-1.E-1,0.E0,2.5E-1));
#91=VERTEX_POINT('',#89);
#92=VERTEX_POINT('',#90);
#93=CARTESIAN_POINT('',(1.6E-2,0.E0,-1.75E0));
#94=CARTESIAN_POINT('',(-1.6E-2,0.E0,-1.75E0));
#95=VERTEX_POINT('',#93);
#96=VERTEX_POINT('',#94);
#97=CARTESIAN_POINT('',(1.6E-2,0.E0,1.75E0));
#98=CARTESIAN_POINT('',(-1.6E-2,0.E0,1.75E0));
#99=VERTEX_POINT('',#97);
#100=VERTEX_POINT('',#98);
#101=CARTESIAN_POINT('',(1.6E-2,0.E0,-2.5E-1));
#102=CARTESIAN_POINT('',(-1.6E-2,0.E0,-2.5E-1));
#103=VERTEX_POINT('',#101);
#104=VERTEX_POINT('',#102);
#105=CARTESIAN_POINT('',(1.6E-2,0.E0,2.5E-1));
#106=CARTESIAN_POINT('',(-1.6E-2,0.E0,2.5E-1));
#107=VERTEX_POINT('',#105);
#108=VERTEX_POINT('',#106);
#109=CARTESIAN_POINT('',(0.E0,0.E0,-2.5E-1));
#110=DIRECTION('',(0.E0,0.E0,1.E0));
#111=DIRECTION('',(1.E0,0.E0,0.E0));
#112=AXIS2_PLACEMENT_3D('',#109,#110,#111);
#113=PLANE('',#112);
#115=ORIENTED_EDGE('',*,*,#114,.T.);
#117=ORIENTED_EDGE('',*,*,#116,.T.);
#118=EDGE_LOOP('',(#115,#117));
#119=FACE_OUTER_BOUND('',#118,.F.);
#121=ORIENTED_EDGE('',*,*,#120,.F.);
#123=ORIENTED_EDGE('',*,*,#122,.F.);
#124=EDGE_LOOP('',(#121,#123));
#125=FACE_BOUND('',#124,.F.);
#127=CARTESIAN_POINT('',(0.E0,0.E0,-2.5E-1));
#128=DIRECTION('',(0.E0,0.E0,1.E0));
#129=DIRECTION('',(1.E0,0.E0,0.E0));
#130=AXIS2_PLACEMENT_3D('',#127,#128,#129);
#131=CYLINDRICAL_SURFACE('',#130,1.E-1);
#132=ORIENTED_EDGE('',*,*,#114,.F.);
#134=ORIENTED_EDGE('',*,*,#133,.T.);
#136=ORIENTED_EDGE('',*,*,#135,.T.);
#138=ORIENTED_EDGE('',*,*,#137,.F.);
#139=EDGE_LOOP('',(#132,#134,#136,#138));
#140=FACE_OUTER_BOUND('',#139,.F.);
#142=CARTESIAN_POINT('',(0.E0,0.E0,-2.5E-1));
#143=DIRECTION('',(0.E0,0.E0,1.E0));
#144=DIRECTION('',(1.E0,0.E0,0.E0));
#145=AXIS2_PLACEMENT_3D('',#142,#143,#144);
#146=CYLINDRICAL_SURFACE('',#145,1.E-1);
#147=ORIENTED_EDGE('',*,*,#116,.F.);
#148=ORIENTED_EDGE('',*,*,#137,.T.);
#150=ORIENTED_EDGE('',*,*,#149,.T.);
#151=ORIENTED_EDGE('',*,*,#133,.F.);
#152=EDGE_LOOP('',(#147,#148,#150,#151));
#153=FACE_OUTER_BOUND('',#152,.F.);
#155=CARTESIAN_POINT('',(0.E0,0.E0,2.5E-1));
#156=DIRECTION('',(0.E0,0.E0,1.E0));
#157=DIRECTION('',(1.E0,0.E0,0.E0));
#158=AXIS2_PLACEMENT_3D('',#155,#156,#157);
#159=PLANE('',#158);
#160=ORIENTED_EDGE('',*,*,#135,.F.);
#161=ORIENTED_EDGE('',*,*,#149,.F.);
#162=EDGE_LOOP('',(#160,#161));
#163=FACE_OUTER_BOUND('',#162,.F.);
#165=ORIENTED_EDGE('',*,*,#164,.T.);
#167=ORIENTED_EDGE('',*,*,#166,.T.);
#168=EDGE_LOOP('',(#165,#167));
#169=FACE_BOUND('',#168,.F.);
#171=CARTESIAN_POINT('',(0.E0,0.E0,-1.75E0));
#172=DIRECTION('',(0.E0,0.E0,1.E0));
#173=DIRECTION('',(1.E0,0.E0,0.E0));
#174=AXIS2_PLACEMENT_3D('',#171,#172,#173);
#175=CYLINDRICAL_SURFACE('',#174,1.6E-2);
#176=ORIENTED_EDGE('',*,*,#120,.T.);
#178=ORIENTED_EDGE('',*,*,#177,.F.);
#180=ORIENTED_EDGE('',*,*,#179,.F.);
#182=ORIENTED_EDGE('',*,*,#181,.T.);
#183=EDGE_LOOP('',(#176,#178,#180,#182));
#184=FACE_OUTER_BOUND('',#183,.F.);
#186=CARTESIAN_POINT('',(0.E0,0.E0,-1.75E0));
#187=DIRECTION('',(0.E0,0.E0,1.E0));
#188=DIRECTION('',(1.E0,0.E0,0.E0));
#189=AXIS2_PLACEMENT_3D('',#186,#187,#188);
#190=CYLINDRICAL_SURFACE('',#189,1.6E-2);
#191=ORIENTED_EDGE('',*,*,#164,.F.);
#193=ORIENTED_EDGE('',*,*,#192,.T.);
#195=ORIENTED_EDGE('',*,*,#194,.T.);
#197=ORIENTED_EDGE('',*,*,#196,.F.);
#198=EDGE_LOOP('',(#191,#193,#195,#197));
#199=FACE_OUTER_BOUND('',#198,.F.);
#201=CARTESIAN_POINT('',(0.E0,0.E0,-1.75E0));
#202=DIRECTION('',(0.E0,0.E0,1.E0));
#203=DIRECTION('',(1.E0,0.E0,0.E0));
#204=AXIS2_PLACEMENT_3D('',#201,#202,#203);
#205=CYLINDRICAL_SURFACE('',#204,1.6E-2);
#206=ORIENTED_EDGE('',*,*,#122,.T.);
#207=ORIENTED_EDGE('',*,*,#181,.F.);
#209=ORIENTED_EDGE('',*,*,#208,.F.);
#210=ORIENTED_EDGE('',*,*,#177,.T.);
#211=EDGE_LOOP('',(#206,#207,#209,#210));
#212=FACE_OUTER_BOUND('',#211,.F.);
#214=CARTESIAN_POINT('',(0.E0,0.E0,-1.75E0));
#215=DIRECTION('',(0.E0,0.E0,1.E0));
#216=DIRECTION('',(1.E0,0.E0,0.E0));
#217=AXIS2_PLACEMENT_3D('',#214,#215,#216);
#218=CYLINDRICAL_SURFACE('',#217,1.6E-2);
#219=ORIENTED_EDGE('',*,*,#166,.F.);
#220=ORIENTED_EDGE('',*,*,#196,.T.);
#222=ORIENTED_EDGE('',*,*,#221,.T.);
#223=ORIENTED_EDGE('',*,*,#192,.F.);
#224=EDGE_LOOP('',(#219,#220,#222,#223));
#225=FACE_OUTER_BOUND('',#224,.F.);
#227=CARTESIAN_POINT('',(0.E0,0.E0,-1.75E0));
#228=DIRECTION('',(0.E0,0.E0,1.E0));
#229=DIRECTION('',(1.E0,0.E0,0.E0));
#230=AXIS2_PLACEMENT_3D('',#227,#228,#229);
#231=PLANE('',#230);
#232=ORIENTED_EDGE('',*,*,#179,.T.);
#233=ORIENTED_EDGE('',*,*,#208,.T.);
#234=EDGE_LOOP('',(#232,#233));
#235=FACE_OUTER_BOUND('',#234,.F.);
#237=CARTESIAN_POINT('',(0.E0,0.E0,1.75E0));
#238=DIRECTION('',(0.E0,0.E0,1.E0));
#239=DIRECTION('',(1.E0,0.E0,0.E0));
#240=AXIS2_PLACEMENT_3D('',#237,#238,#239);
#241=PLANE('',#240);
#242=ORIENTED_EDGE('',*,*,#194,.F.);
#243=ORIENTED_EDGE('',*,*,#221,.F.);
#244=EDGE_LOOP('',(#242,#243));
#245=FACE_OUTER_BOUND('',#244,.F.);
#247=CLOSED_SHELL('',(#126,#141,#154,#170,#185,#200,#213,#226,#236,#246));
#248=MANIFOLD_SOLID_BREP('',#247);
#249=DIMENSIONAL_EXPONENTS(1.E0,0.E0,0.E0,0.E0,0.E0,0.E0,0.E0);
#251=LENGTH_MEASURE_WITH_UNIT(LENGTH_MEASURE(2.54E1),#250);
#252=(CONVERSION_BASED_UNIT('INCH',#251)LENGTH_UNIT()NAMED_UNIT(#249));
#253=DIMENSIONAL_EXPONENTS(0.E0,0.E0,0.E0,0.E0,0.E0,0.E0,0.E0);
#255=PLANE_ANGLE_MEASURE_WITH_UNIT(PLANE_ANGLE_MEASURE(1.745329251994E-2),#254);
#256=(CONVERSION_BASED_UNIT('DEGREE',#255)NAMED_UNIT(*)PLANE_ANGLE_UNIT());
#258=UNCERTAINTY_MEASURE_WITH_UNIT(LENGTH_MEASURE(1.463030566505E-4),#252,
'closure',
'Maximum model space distance between geometric entities at asserted connectivities');
#261=APPLICATION_CONTEXT(
'CONFIGURATION CONTROLLED 3D DESIGNS OF MECHANICAL PARTS AND ASSEMBLIES');
#262=APPLICATION_PROTOCOL_DEFINITION('international standard',
'config_control_design',1994,#261);
#263=DESIGN_CONTEXT('',#261,'design');
#264=MECHANICAL_CONTEXT('',#261,'mechanical');
#265=PRODUCT('74F106AP-RC','74F106AP-RC','NOT SPECIFIED',(#264));
#266=PRODUCT_DEFINITION_FORMATION_WITH_SPECIFIED_SOURCE('1','LAST_VERSION',#265,
.MADE.);
#270=PRODUCT_CATEGORY('part','');
#271=PRODUCT_RELATED_PRODUCT_CATEGORY('detail','',(#265));
#272=PRODUCT_CATEGORY_RELATIONSHIP('','',#270,#271);
#273=SECURITY_CLASSIFICATION_LEVEL('unclassified');
#274=SECURITY_CLASSIFICATION('','',#273);
#275=CC_DESIGN_SECURITY_CLASSIFICATION(#274,(#266));
#276=APPROVAL_STATUS('approved');
#277=APPROVAL(#276,'');
#278=CC_DESIGN_APPROVAL(#277,(#274,#266,#267));
#279=CALENDAR_DATE(112,24,8);
#280=COORDINATED_UNIVERSAL_TIME_OFFSET(7,0,.BEHIND.);
#281=LOCAL_TIME(15,26,2.E1,#280);
#282=DATE_AND_TIME(#279,#281);
#283=APPROVAL_DATE_TIME(#282,#277);
#284=DATE_TIME_ROLE('creation_date');
#285=CC_DESIGN_DATE_AND_TIME_ASSIGNMENT(#282,#284,(#267));
#286=DATE_TIME_ROLE('classification_date');
#287=CC_DESIGN_DATE_AND_TIME_ASSIGNMENT(#282,#286,(#274));
#288=PERSON('UNSPECIFIED','UNSPECIFIED',$,$,$,$);
#289=ORGANIZATION('UNSPECIFIED','UNSPECIFIED','UNSPECIFIED');
#290=PERSON_AND_ORGANIZATION(#288,#289);
#291=APPROVAL_ROLE('approver');
#292=APPROVAL_PERSON_ORGANIZATION(#290,#277,#291);
#293=PERSON_AND_ORGANIZATION_ROLE('creator');
#294=CC_DESIGN_PERSON_AND_ORGANIZATION_ASSIGNMENT(#290,#293,(#266,#267));
#295=PERSON_AND_ORGANIZATION_ROLE('design_supplier');
#296=CC_DESIGN_PERSON_AND_ORGANIZATION_ASSIGNMENT(#290,#295,(#266));
#297=PERSON_AND_ORGANIZATION_ROLE('classification_officer');
#298=CC_DESIGN_PERSON_AND_ORGANIZATION_ASSIGNMENT(#290,#297,(#274));
#299=PERSON_AND_ORGANIZATION_ROLE('design_owner');
#300=CC_DESIGN_PERSON_AND_ORGANIZATION_ASSIGNMENT(#290,#299,(#265));
#5=CIRCLE('',#4,1.E-1);
#10=CIRCLE('',#9,1.E-1);
#15=CIRCLE('',#14,1.6E-2);
#20=CIRCLE('',#19,1.6E-2);
#33=CIRCLE('',#32,1.E-1);
#38=CIRCLE('',#37,1.E-1);
#43=CIRCLE('',#42,1.6E-2);
#48=CIRCLE('',#47,1.6E-2);
#69=CIRCLE('',#68,1.6E-2);
#74=CIRCLE('',#73,1.6E-2);
#79=CIRCLE('',#78,1.6E-2);
#84=CIRCLE('',#83,1.6E-2);
#114=EDGE_CURVE('',#87,#88,#5,.T.);
#116=EDGE_CURVE('',#88,#87,#10,.T.);
#120=EDGE_CURVE('',#103,#104,#15,.T.);
#122=EDGE_CURVE('',#104,#103,#20,.T.);
#126=ADVANCED_FACE('',(#119,#125),#113,.F.);
#133=EDGE_CURVE('',#87,#91,#24,.T.);
#135=EDGE_CURVE('',#91,#92,#33,.T.);
#137=EDGE_CURVE('',#88,#92,#28,.T.);
#141=ADVANCED_FACE('',(#140),#131,.T.);
#149=EDGE_CURVE('',#92,#91,#38,.T.);
#154=ADVANCED_FACE('',(#153),#146,.T.);
#164=EDGE_CURVE('',#107,#108,#43,.T.);
#166=EDGE_CURVE('',#108,#107,#48,.T.);
#170=ADVANCED_FACE('',(#163,#169),#159,.T.);
#177=EDGE_CURVE('',#96,#104,#60,.T.);
#179=EDGE_CURVE('',#95,#96,#69,.T.);
#181=EDGE_CURVE('',#95,#103,#52,.T.);
#185=ADVANCED_FACE('',(#184),#175,.T.);
#192=EDGE_CURVE('',#107,#99,#56,.T.);
#194=EDGE_CURVE('',#99,#100,#79,.T.);
#196=EDGE_CURVE('',#108,#100,#64,.T.);
#200=ADVANCED_FACE('',(#199),#190,.T.);
#208=EDGE_CURVE('',#96,#95,#74,.T.);
#213=ADVANCED_FACE('',(#212),#205,.T.);
#221=EDGE_CURVE('',#100,#99,#84,.T.);
#226=ADVANCED_FACE('',(#225),#218,.T.);
#236=ADVANCED_FACE('',(#235),#231,.F.);
#246=ADVANCED_FACE('',(#245),#241,.T.);
#250=(LENGTH_UNIT()NAMED_UNIT(*)SI_UNIT(.MILLI.,.METRE.));
#254=(NAMED_UNIT(*)PLANE_ANGLE_UNIT()SI_UNIT($,.RADIAN.));
#257=(NAMED_UNIT(*)SI_UNIT($,.STERADIAN.)SOLID_ANGLE_UNIT());
#259=(GEOMETRIC_REPRESENTATION_CONTEXT(3)GLOBAL_UNCERTAINTY_ASSIGNED_CONTEXT((
#258))GLOBAL_UNIT_ASSIGNED_CONTEXT((#252,#256,#257))REPRESENTATION_CONTEXT
('ID1','3'));
#260=ADVANCED_BREP_SHAPE_REPRESENTATION('',(#248),#259);
#267=PRODUCT_DEFINITION('design','',#266,#263);
#268=PRODUCT_DEFINITION_SHAPE('','SHAPE FOR 74F106AP-RC.',#267);
#269=SHAPE_DEFINITION_REPRESENTATION(#268,#260);
ENDSEC;
END-ISO-10303-21;
