ISO-10303-21;
HEADER;
FILE_DESCRIPTION((''),'2;1');
FILE_NAME('78F','2012-08-07T',('ryans'),('Bourns, Inc.'),
'PRO/ENGINEER BY PARAMETRIC TECHNOLOGY CORPORATION, 2010100',
'PRO/ENGINEER BY PARAMETRIC TECHNOLOGY CORPORATION, 2010100','');
FILE_SCHEMA(('CONFIG_CONTROL_DESIGN'));
ENDSEC;
DATA;
#1=DIRECTION('',(0.E0,-3.018108417819E-11,1.E0));
#2=VECTOR('',#1,5.91E0);
#3=CARTESIAN_POINT('',(1.395E0,1.340068215055E-10,-2.955E0));
#4=LINE('',#3,#2);
#5=CARTESIAN_POINT('',(0.E0,0.E0,2.955E0));
#6=DIRECTION('',(0.E0,0.E0,1.E0));
#7=DIRECTION('',(1.E0,0.E0,0.E0));
#8=AXIS2_PLACEMENT_3D('',#5,#6,#7);
#10=CARTESIAN_POINT('',(0.E0,0.E0,-2.955E0));
#11=DIRECTION('',(0.E0,0.E0,-1.E0));
#12=DIRECTION('',(-1.E0,0.E0,0.E0));
#13=AXIS2_PLACEMENT_3D('',#10,#11,#12);
#15=CARTESIAN_POINT('',(0.E0,0.E0,-2.955E0));
#16=DIRECTION('',(0.E0,0.E0,-1.E0));
#17=DIRECTION('',(1.E0,0.E0,0.E0));
#18=AXIS2_PLACEMENT_3D('',#15,#16,#17);
#20=DIRECTION('',(0.E0,3.018107595954E-11,1.E0));
#21=VECTOR('',#20,5.91E0);
#22=CARTESIAN_POINT('',(-1.395E0,-1.340071643222E-10,-2.955E0));
#23=LINE('',#22,#21);
#24=CARTESIAN_POINT('',(0.E0,0.E0,2.955E0));
#25=DIRECTION('',(0.E0,0.E0,1.E0));
#26=DIRECTION('',(-1.E0,0.E0,0.E0));
#27=AXIS2_PLACEMENT_3D('',#24,#25,#26);
#29=CARTESIAN_POINT('',(7.95E-1,0.E0,-2.955E0));
#30=DIRECTION('',(0.E0,-1.E0,0.E0));
#31=DIRECTION('',(0.E0,0.E0,-1.E0));
#32=AXIS2_PLACEMENT_3D('',#29,#30,#31);
#34=CARTESIAN_POINT('',(0.E0,0.E0,-3.555E0));
#35=DIRECTION('',(0.E0,0.E0,1.E0));
#36=DIRECTION('',(1.E0,0.E0,0.E0));
#37=AXIS2_PLACEMENT_3D('',#34,#35,#36);
#39=CARTESIAN_POINT('',(0.E0,0.E0,-3.555E0));
#40=DIRECTION('',(0.E0,0.E0,1.E0));
#41=DIRECTION('',(-1.E0,0.E0,0.E0));
#42=AXIS2_PLACEMENT_3D('',#39,#40,#41);
#44=CARTESIAN_POINT('',(0.E0,0.E0,-3.555E0));
#45=DIRECTION('',(0.E0,0.E0,-1.E0));
#46=DIRECTION('',(-1.E0,0.E0,0.E0));
#47=AXIS2_PLACEMENT_3D('',#44,#45,#46);
#49=CARTESIAN_POINT('',(0.E0,0.E0,-3.555E0));
#50=DIRECTION('',(0.E0,0.E0,-1.E0));
#51=DIRECTION('',(1.E0,0.E0,0.E0));
#52=AXIS2_PLACEMENT_3D('',#49,#50,#51);
#54=DIRECTION('',(0.E0,0.E0,1.E0));
#55=VECTOR('',#54,2.54E1);
#56=CARTESIAN_POINT('',(2.55E-1,0.E0,-2.8955E1));
#57=LINE('',#56,#55);
#58=DIRECTION('',(0.E0,0.E0,1.E0));
#59=VECTOR('',#58,2.54E1);
#60=CARTESIAN_POINT('',(2.55E-1,0.E0,3.555E0));
#61=LINE('',#60,#59);
#62=DIRECTION('',(0.E0,0.E0,1.E0));
#63=VECTOR('',#62,2.54E1);
#64=CARTESIAN_POINT('',(-2.55E-1,0.E0,-2.8955E1));
#65=LINE('',#64,#63);
#66=DIRECTION('',(0.E0,0.E0,1.E0));
#67=VECTOR('',#66,2.54E1);
#68=CARTESIAN_POINT('',(-2.55E-1,0.E0,3.555E0));
#69=LINE('',#68,#67);
#70=CARTESIAN_POINT('',(0.E0,0.E0,-2.8955E1));
#71=DIRECTION('',(0.E0,0.E0,1.E0));
#72=DIRECTION('',(1.E0,0.E0,0.E0));
#73=AXIS2_PLACEMENT_3D('',#70,#71,#72);
#75=CARTESIAN_POINT('',(0.E0,0.E0,-2.8955E1));
#76=DIRECTION('',(0.E0,0.E0,1.E0));
#77=DIRECTION('',(-1.E0,0.E0,0.E0));
#78=AXIS2_PLACEMENT_3D('',#75,#76,#77);
#80=CARTESIAN_POINT('',(0.E0,0.E0,3.555E0));
#81=DIRECTION('',(0.E0,0.E0,1.E0));
#82=DIRECTION('',(1.E0,0.E0,0.E0));
#83=AXIS2_PLACEMENT_3D('',#80,#81,#82);
#85=CARTESIAN_POINT('',(0.E0,0.E0,3.555E0));
#86=DIRECTION('',(0.E0,0.E0,1.E0));
#87=DIRECTION('',(-1.E0,0.E0,0.E0));
#88=AXIS2_PLACEMENT_3D('',#85,#86,#87);
#90=CARTESIAN_POINT('',(0.E0,0.E0,3.555E0));
#91=DIRECTION('',(0.E0,0.E0,1.E0));
#92=DIRECTION('',(1.E0,0.E0,0.E0));
#93=AXIS2_PLACEMENT_3D('',#90,#91,#92);
#95=CARTESIAN_POINT('',(0.E0,0.E0,3.555E0));
#96=DIRECTION('',(0.E0,0.E0,1.E0));
#97=DIRECTION('',(-1.E0,0.E0,0.E0));
#98=AXIS2_PLACEMENT_3D('',#95,#96,#97);
#100=CARTESIAN_POINT('',(7.95E-1,0.E0,2.955E0));
#101=DIRECTION('',(0.E0,1.E0,0.E0));
#102=DIRECTION('',(0.E0,0.E0,1.E0));
#103=AXIS2_PLACEMENT_3D('',#100,#101,#102);
#105=CARTESIAN_POINT('',(-7.95E-1,0.E0,2.955E0));
#106=DIRECTION('',(0.E0,-1.E0,0.E0));
#107=DIRECTION('',(0.E0,0.E0,1.E0));
#108=AXIS2_PLACEMENT_3D('',#105,#106,#107);
#110=CARTESIAN_POINT('',(0.E0,0.E0,2.8955E1));
#111=DIRECTION('',(0.E0,0.E0,1.E0));
#112=DIRECTION('',(1.E0,0.E0,0.E0));
#113=AXIS2_PLACEMENT_3D('',#110,#111,#112);
#115=CARTESIAN_POINT('',(0.E0,0.E0,2.8955E1));
#116=DIRECTION('',(0.E0,0.E0,1.E0));
#117=DIRECTION('',(-1.E0,0.E0,0.E0));
#118=AXIS2_PLACEMENT_3D('',#115,#116,#117);
#120=CARTESIAN_POINT('',(-7.95E-1,0.E0,-2.955E0));
#121=DIRECTION('',(0.E0,1.E0,0.E0));
#122=DIRECTION('',(0.E0,0.E0,-1.E0));
#123=AXIS2_PLACEMENT_3D('',#120,#121,#122);
#125=CARTESIAN_POINT('',(2.55E-1,0.E0,-2.8955E1));
#126=CARTESIAN_POINT('',(-2.55E-1,0.E0,-2.8955E1));
#127=VERTEX_POINT('',#125);
#128=VERTEX_POINT('',#126);
#129=CARTESIAN_POINT('',(2.55E-1,0.E0,2.8955E1));
#130=CARTESIAN_POINT('',(-2.55E-1,0.E0,2.8955E1));
#131=VERTEX_POINT('',#129);
#132=VERTEX_POINT('',#130);
#133=CARTESIAN_POINT('',(2.55E-1,0.E0,-3.555E0));
#134=CARTESIAN_POINT('',(-2.55E-1,0.E0,-3.555E0));
#135=VERTEX_POINT('',#133);
#136=VERTEX_POINT('',#134);
#137=CARTESIAN_POINT('',(2.55E-1,0.E0,3.555E0));
#138=CARTESIAN_POINT('',(-2.55E-1,0.E0,3.555E0));
#139=VERTEX_POINT('',#137);
#140=VERTEX_POINT('',#138);
#141=CARTESIAN_POINT('',(1.395E0,1.340068215055E-10,-2.955E0));
#142=CARTESIAN_POINT('',(1.395E0,-4.436338598762E-11,2.955E0));
#143=VERTEX_POINT('',#141);
#144=VERTEX_POINT('',#142);
#145=CARTESIAN_POINT('',(-1.395E0,-1.340071643222E-10,-2.955E0));
#146=CARTESIAN_POINT('',(-1.395E0,4.436299459864E-11,2.955E0));
#147=VERTEX_POINT('',#145);
#148=VERTEX_POINT('',#146);
#149=CARTESIAN_POINT('',(7.95E-1,0.E0,3.555E0));
#150=CARTESIAN_POINT('',(-7.95E-1,0.E0,3.555E0));
#151=VERTEX_POINT('',#149);
#152=VERTEX_POINT('',#150);
#153=CARTESIAN_POINT('',(-7.95E-1,0.E0,-3.555E0));
#154=CARTESIAN_POINT('',(7.95E-1,0.E0,-3.555E0));
#155=VERTEX_POINT('',#153);
#156=VERTEX_POINT('',#154);
#157=CARTESIAN_POINT('',(0.E0,0.E0,-3.555E0));
#158=DIRECTION('',(0.E0,0.E0,1.E0));
#159=DIRECTION('',(1.E0,0.E0,0.E0));
#160=AXIS2_PLACEMENT_3D('',#157,#158,#159);
#161=CYLINDRICAL_SURFACE('',#160,1.395E0);
#163=ORIENTED_EDGE('',*,*,#162,.T.);
#165=ORIENTED_EDGE('',*,*,#164,.T.);
#167=ORIENTED_EDGE('',*,*,#166,.F.);
#169=ORIENTED_EDGE('',*,*,#168,.T.);
#170=EDGE_LOOP('',(#163,#165,#167,#169));
#171=FACE_OUTER_BOUND('',#170,.F.);
#173=CARTESIAN_POINT('',(0.E0,0.E0,-3.555E0));
#174=DIRECTION('',(0.E0,0.E0,1.E0));
#175=DIRECTION('',(1.E0,0.E0,0.E0));
#176=AXIS2_PLACEMENT_3D('',#173,#174,#175);
#177=CYLINDRICAL_SURFACE('',#176,1.395E0);
#178=ORIENTED_EDGE('',*,*,#162,.F.);
#180=ORIENTED_EDGE('',*,*,#179,.T.);
#181=ORIENTED_EDGE('',*,*,#166,.T.);
#183=ORIENTED_EDGE('',*,*,#182,.T.);
#184=EDGE_LOOP('',(#178,#180,#181,#183));
#185=FACE_OUTER_BOUND('',#184,.F.);
#187=CARTESIAN_POINT('',(0.E0,0.E0,-2.955E0));
#188=DIRECTION('',(0.E0,0.E0,1.E0));
#189=DIRECTION('',(9.992830643948E-1,3.785970435278E-2,0.E0));
#190=AXIS2_PLACEMENT_3D('',#187,#188,#189);
#191=TOROIDAL_SURFACE('',#190,7.95E-1,6.E-1);
#193=ORIENTED_EDGE('',*,*,#192,.T.);
#195=ORIENTED_EDGE('',*,*,#194,.T.);
#196=ORIENTED_EDGE('',*,*,#179,.F.);
#198=ORIENTED_EDGE('',*,*,#197,.F.);
#199=EDGE_LOOP('',(#193,#195,#196,#198));
#200=FACE_OUTER_BOUND('',#199,.F.);
#202=CARTESIAN_POINT('',(0.E0,0.E0,-3.555E0));
#203=DIRECTION('',(0.E0,0.E0,1.E0));
#204=DIRECTION('',(1.E0,0.E0,0.E0));
#205=AXIS2_PLACEMENT_3D('',#202,#203,#204);
#206=PLANE('',#205);
#208=ORIENTED_EDGE('',*,*,#207,.F.);
#209=ORIENTED_EDGE('',*,*,#192,.F.);
#210=EDGE_LOOP('',(#208,#209));
#211=FACE_OUTER_BOUND('',#210,.F.);
#213=ORIENTED_EDGE('',*,*,#212,.F.);
#215=ORIENTED_EDGE('',*,*,#214,.F.);
#216=EDGE_LOOP('',(#213,#215));
#217=FACE_BOUND('',#216,.F.);
#219=CARTESIAN_POINT('',(0.E0,0.E0,-2.8955E1));
#220=DIRECTION('',(0.E0,0.E0,1.E0));
#221=DIRECTION('',(1.E0,0.E0,0.E0));
#222=AXIS2_PLACEMENT_3D('',#219,#220,#221);
#223=CYLINDRICAL_SURFACE('',#222,2.55E-1);
#224=ORIENTED_EDGE('',*,*,#212,.T.);
#226=ORIENTED_EDGE('',*,*,#225,.F.);
#228=ORIENTED_EDGE('',*,*,#227,.F.);
#230=ORIENTED_EDGE('',*,*,#229,.T.);
#231=EDGE_LOOP('',(#224,#226,#228,#230));
#232=FACE_OUTER_BOUND('',#231,.F.);
#234=CARTESIAN_POINT('',(0.E0,0.E0,-2.8955E1));
#235=DIRECTION('',(0.E0,0.E0,1.E0));
#236=DIRECTION('',(1.E0,0.E0,0.E0));
#237=AXIS2_PLACEMENT_3D('',#234,#235,#236);
#238=CYLINDRICAL_SURFACE('',#237,2.55E-1);
#240=ORIENTED_EDGE('',*,*,#239,.F.);
#242=ORIENTED_EDGE('',*,*,#241,.T.);
#244=ORIENTED_EDGE('',*,*,#243,.T.);
#246=ORIENTED_EDGE('',*,*,#245,.F.);
#247=EDGE_LOOP('',(#240,#242,#244,#246));
#248=FACE_OUTER_BOUND('',#247,.F.);
#250=CARTESIAN_POINT('',(0.E0,0.E0,-2.8955E1));
#251=DIRECTION('',(0.E0,0.E0,1.E0));
#252=DIRECTION('',(1.E0,0.E0,0.E0));
#253=AXIS2_PLACEMENT_3D('',#250,#251,#252);
#254=CYLINDRICAL_SURFACE('',#253,2.55E-1);
#255=ORIENTED_EDGE('',*,*,#214,.T.);
#256=ORIENTED_EDGE('',*,*,#229,.F.);
#258=ORIENTED_EDGE('',*,*,#257,.F.);
#259=ORIENTED_EDGE('',*,*,#225,.T.);
#260=EDGE_LOOP('',(#255,#256,#258,#259));
#261=FACE_OUTER_BOUND('',#260,.F.);
#263=CARTESIAN_POINT('',(0.E0,0.E0,-2.8955E1));
#264=DIRECTION('',(0.E0,0.E0,1.E0));
#265=DIRECTION('',(1.E0,0.E0,0.E0));
#266=AXIS2_PLACEMENT_3D('',#263,#264,#265);
#267=CYLINDRICAL_SURFACE('',#266,2.55E-1);
#269=ORIENTED_EDGE('',*,*,#268,.F.);
#270=ORIENTED_EDGE('',*,*,#245,.T.);
#272=ORIENTED_EDGE('',*,*,#271,.T.);
#273=ORIENTED_EDGE('',*,*,#241,.F.);
#274=EDGE_LOOP('',(#269,#270,#272,#273));
#275=FACE_OUTER_BOUND('',#274,.F.);
#277=CARTESIAN_POINT('',(0.E0,0.E0,-2.8955E1));
#278=DIRECTION('',(0.E0,0.E0,1.E0));
#279=DIRECTION('',(1.E0,0.E0,0.E0));
#280=AXIS2_PLACEMENT_3D('',#277,#278,#279);
#281=PLANE('',#280);
#282=ORIENTED_EDGE('',*,*,#227,.T.);
#283=ORIENTED_EDGE('',*,*,#257,.T.);
#284=EDGE_LOOP('',(#282,#283));
#285=FACE_OUTER_BOUND('',#284,.F.);
#287=CARTESIAN_POINT('',(0.E0,0.E0,3.555E0));
#288=DIRECTION('',(0.E0,0.E0,1.E0));
#289=DIRECTION('',(1.E0,0.E0,0.E0));
#290=AXIS2_PLACEMENT_3D('',#287,#288,#289);
#291=PLANE('',#290);
#293=ORIENTED_EDGE('',*,*,#292,.F.);
#295=ORIENTED_EDGE('',*,*,#294,.F.);
#296=EDGE_LOOP('',(#293,#295));
#297=FACE_OUTER_BOUND('',#296,.F.);
#298=ORIENTED_EDGE('',*,*,#239,.T.);
#299=ORIENTED_EDGE('',*,*,#268,.T.);
#300=EDGE_LOOP('',(#298,#299));
#301=FACE_BOUND('',#300,.F.);
#303=CARTESIAN_POINT('',(0.E0,0.E0,2.955E0));
#304=DIRECTION('',(0.E0,0.E0,1.E0));
#305=DIRECTION('',(9.996447043978E-1,-2.665454875877E-2,0.E0));
#306=AXIS2_PLACEMENT_3D('',#303,#304,#305);
#307=TOROIDAL_SURFACE('',#306,7.95E-1,6.E-1);
#308=ORIENTED_EDGE('',*,*,#292,.T.);
#310=ORIENTED_EDGE('',*,*,#309,.T.);
#311=ORIENTED_EDGE('',*,*,#164,.F.);
#313=ORIENTED_EDGE('',*,*,#312,.F.);
#314=EDGE_LOOP('',(#308,#310,#311,#313));
#315=FACE_OUTER_BOUND('',#314,.F.);
#317=CARTESIAN_POINT('',(0.E0,0.E0,2.955E0));
#318=DIRECTION('',(0.E0,0.E0,1.E0));
#319=DIRECTION('',(-9.996447043978E-1,2.665454875877E-2,0.E0));
#320=AXIS2_PLACEMENT_3D('',#317,#318,#319);
#321=TOROIDAL_SURFACE('',#320,7.95E-1,6.E-1);
#322=ORIENTED_EDGE('',*,*,#294,.T.);
#323=ORIENTED_EDGE('',*,*,#312,.T.);
#324=ORIENTED_EDGE('',*,*,#182,.F.);
#325=ORIENTED_EDGE('',*,*,#309,.F.);
#326=EDGE_LOOP('',(#322,#323,#324,#325));
#327=FACE_OUTER_BOUND('',#326,.F.);
#329=CARTESIAN_POINT('',(0.E0,0.E0,2.8955E1));
#330=DIRECTION('',(0.E0,0.E0,1.E0));
#331=DIRECTION('',(1.E0,0.E0,0.E0));
#332=AXIS2_PLACEMENT_3D('',#329,#330,#331);
#333=PLANE('',#332);
#334=ORIENTED_EDGE('',*,*,#243,.F.);
#335=ORIENTED_EDGE('',*,*,#271,.F.);
#336=EDGE_LOOP('',(#334,#335));
#337=FACE_OUTER_BOUND('',#336,.F.);
#339=CARTESIAN_POINT('',(0.E0,0.E0,-2.955E0));
#340=DIRECTION('',(0.E0,0.E0,1.E0));
#341=DIRECTION('',(-9.992830643948E-1,-3.785970435278E-2,0.E0));
#342=AXIS2_PLACEMENT_3D('',#339,#340,#341);
#343=TOROIDAL_SURFACE('',#342,7.95E-1,6.E-1);
#344=ORIENTED_EDGE('',*,*,#207,.T.);
#345=ORIENTED_EDGE('',*,*,#197,.T.);
#346=ORIENTED_EDGE('',*,*,#168,.F.);
#347=ORIENTED_EDGE('',*,*,#194,.F.);
#348=EDGE_LOOP('',(#344,#345,#346,#347));
#349=FACE_OUTER_BOUND('',#348,.F.);
#351=CLOSED_SHELL('',(#172,#186,#201,#218,#233,#249,#262,#276,#286,#302,#316,
#328,#338,#350));
#352=MANIFOLD_SOLID_BREP('',#351);
#354=DIMENSIONAL_EXPONENTS(0.E0,0.E0,0.E0,0.E0,0.E0,0.E0,0.E0);
#356=PLANE_ANGLE_MEASURE_WITH_UNIT(PLANE_ANGLE_MEASURE(1.745329251994E-2),#355);
#357=(CONVERSION_BASED_UNIT('DEGREE',#356)NAMED_UNIT(*)PLANE_ANGLE_UNIT());
#359=UNCERTAINTY_MEASURE_WITH_UNIT(LENGTH_MEASURE(2.418416042861E-3),#353,
'closure',
'Maximum model space distance between geometric entities at asserted connectivities');
#362=APPLICATION_CONTEXT(
'CONFIGURATION CONTROLLED 3D DESIGNS OF MECHANICAL PARTS AND ASSEMBLIES');
#363=APPLICATION_PROTOCOL_DEFINITION('international standard',
'config_control_design',1994,#362);
#364=DESIGN_CONTEXT('',#362,'design');
#365=MECHANICAL_CONTEXT('',#362,'mechanical');
#366=PRODUCT('78F','78F','NOT SPECIFIED',(#365));
#367=PRODUCT_DEFINITION_FORMATION_WITH_SPECIFIED_SOURCE('1','LAST_VERSION',#366,
.MADE.);
#371=PRODUCT_CATEGORY('part','');
#372=PRODUCT_RELATED_PRODUCT_CATEGORY('detail','',(#366));
#373=PRODUCT_CATEGORY_RELATIONSHIP('','',#371,#372);
#374=SECURITY_CLASSIFICATION_LEVEL('unclassified');
#375=SECURITY_CLASSIFICATION('','',#374);
#376=CC_DESIGN_SECURITY_CLASSIFICATION(#375,(#367));
#377=APPROVAL_STATUS('approved');
#378=APPROVAL(#377,'');
#379=CC_DESIGN_APPROVAL(#378,(#375,#367,#368));
#380=CALENDAR_DATE(112,7,8);
#381=COORDINATED_UNIVERSAL_TIME_OFFSET(7,0,.BEHIND.);
#382=LOCAL_TIME(16,9,3.3E1,#381);
#383=DATE_AND_TIME(#380,#382);
#384=APPROVAL_DATE_TIME(#383,#378);
#385=DATE_TIME_ROLE('creation_date');
#386=CC_DESIGN_DATE_AND_TIME_ASSIGNMENT(#383,#385,(#368));
#387=DATE_TIME_ROLE('classification_date');
#388=CC_DESIGN_DATE_AND_TIME_ASSIGNMENT(#383,#387,(#375));
#389=PERSON('UNSPECIFIED','UNSPECIFIED',$,$,$,$);
#390=ORGANIZATION('UNSPECIFIED','UNSPECIFIED','UNSPECIFIED');
#391=PERSON_AND_ORGANIZATION(#389,#390);
#392=APPROVAL_ROLE('approver');
#393=APPROVAL_PERSON_ORGANIZATION(#391,#378,#392);
#394=PERSON_AND_ORGANIZATION_ROLE('creator');
#395=CC_DESIGN_PERSON_AND_ORGANIZATION_ASSIGNMENT(#391,#394,(#367,#368));
#396=PERSON_AND_ORGANIZATION_ROLE('design_supplier');
#397=CC_DESIGN_PERSON_AND_ORGANIZATION_ASSIGNMENT(#391,#396,(#367));
#398=PERSON_AND_ORGANIZATION_ROLE('classification_officer');
#399=CC_DESIGN_PERSON_AND_ORGANIZATION_ASSIGNMENT(#391,#398,(#375));
#400=PERSON_AND_ORGANIZATION_ROLE('design_owner');
#401=CC_DESIGN_PERSON_AND_ORGANIZATION_ASSIGNMENT(#391,#400,(#366));
#9=CIRCLE('',#8,1.395E0);
#14=CIRCLE('',#13,1.395E0);
#19=CIRCLE('',#18,1.395E0);
#28=CIRCLE('',#27,1.395E0);
#33=CIRCLE('',#32,6.E-1);
#38=CIRCLE('',#37,2.55E-1);
#43=CIRCLE('',#42,2.55E-1);
#48=CIRCLE('',#47,7.95E-1);
#53=CIRCLE('',#52,7.95E-1);
#74=CIRCLE('',#73,2.55E-1);
#79=CIRCLE('',#78,2.55E-1);
#84=CIRCLE('',#83,2.55E-1);
#89=CIRCLE('',#88,2.55E-1);
#94=CIRCLE('',#93,7.95E-1);
#99=CIRCLE('',#98,7.95E-1);
#104=CIRCLE('',#103,6.E-1);
#109=CIRCLE('',#108,6.E-1);
#114=CIRCLE('',#113,2.55E-1);
#119=CIRCLE('',#118,2.55E-1);
#124=CIRCLE('',#123,6.E-1);
#162=EDGE_CURVE('',#143,#144,#4,.T.);
#164=EDGE_CURVE('',#144,#148,#9,.T.);
#166=EDGE_CURVE('',#147,#148,#23,.T.);
#168=EDGE_CURVE('',#147,#143,#14,.T.);
#172=ADVANCED_FACE('',(#171),#161,.T.);
#179=EDGE_CURVE('',#143,#147,#19,.T.);
#182=EDGE_CURVE('',#148,#144,#28,.T.);
#186=ADVANCED_FACE('',(#185),#177,.T.);
#192=EDGE_CURVE('',#156,#155,#53,.T.);
#194=EDGE_CURVE('',#155,#147,#124,.T.);
#197=EDGE_CURVE('',#156,#143,#33,.T.);
#201=ADVANCED_FACE('',(#200),#191,.T.);
#207=EDGE_CURVE('',#155,#156,#48,.T.);
#212=EDGE_CURVE('',#135,#136,#38,.T.);
#214=EDGE_CURVE('',#136,#135,#43,.T.);
#218=ADVANCED_FACE('',(#211,#217),#206,.F.);
#225=EDGE_CURVE('',#128,#136,#65,.T.);
#227=EDGE_CURVE('',#127,#128,#74,.T.);
#229=EDGE_CURVE('',#127,#135,#57,.T.);
#233=ADVANCED_FACE('',(#232),#223,.T.);
#239=EDGE_CURVE('',#139,#140,#84,.T.);
#241=EDGE_CURVE('',#139,#131,#61,.T.);
#243=EDGE_CURVE('',#131,#132,#114,.T.);
#245=EDGE_CURVE('',#140,#132,#69,.T.);
#249=ADVANCED_FACE('',(#248),#238,.T.);
#257=EDGE_CURVE('',#128,#127,#79,.T.);
#262=ADVANCED_FACE('',(#261),#254,.T.);
#268=EDGE_CURVE('',#140,#139,#89,.T.);
#271=EDGE_CURVE('',#132,#131,#119,.T.);
#276=ADVANCED_FACE('',(#275),#267,.T.);
#286=ADVANCED_FACE('',(#285),#281,.F.);
#292=EDGE_CURVE('',#151,#152,#94,.T.);
#294=EDGE_CURVE('',#152,#151,#99,.T.);
#302=ADVANCED_FACE('',(#297,#301),#291,.T.);
#309=EDGE_CURVE('',#152,#148,#109,.T.);
#312=EDGE_CURVE('',#151,#144,#104,.T.);
#316=ADVANCED_FACE('',(#315),#307,.T.);
#328=ADVANCED_FACE('',(#327),#321,.T.);
#338=ADVANCED_FACE('',(#337),#333,.T.);
#350=ADVANCED_FACE('',(#349),#343,.T.);
#353=(LENGTH_UNIT()NAMED_UNIT(*)SI_UNIT(.MILLI.,.METRE.));
#355=(NAMED_UNIT(*)PLANE_ANGLE_UNIT()SI_UNIT($,.RADIAN.));
#358=(NAMED_UNIT(*)SI_UNIT($,.STERADIAN.)SOLID_ANGLE_UNIT());
#360=(GEOMETRIC_REPRESENTATION_CONTEXT(3)GLOBAL_UNCERTAINTY_ASSIGNED_CONTEXT((
#359))GLOBAL_UNIT_ASSIGNED_CONTEXT((#353,#357,#358))REPRESENTATION_CONTEXT
('ID1','3'));
#361=ADVANCED_BREP_SHAPE_REPRESENTATION('',(#352),#360);
#368=PRODUCT_DEFINITION('design','',#367,#364);
#369=PRODUCT_DEFINITION_SHAPE('','SHAPE FOR 78F.',#368);
#370=SHAPE_DEFINITION_REPRESENTATION(#369,#361);
ENDSEC;
END-ISO-10303-21;
