ISO-10303-21;
HEADER;
FILE_DESCRIPTION((''),'2;1');
FILE_NAME('CD1206-BXX','2012-07-18T',('ryans'),('Bourns, Inc.'),
'PRO/ENGINEER BY PARAMETRIC TECHNOLOGY CORPORATION, 2010100',
'PRO/ENGINEER BY PARAMETRIC TECHNOLOGY CORPORATION, 2010100','');
FILE_SCHEMA(('CONFIG_CONTROL_DESIGN'));
ENDSEC;
DATA;
#1=DIRECTION('',(0.E0,0.E0,-1.E0));
#2=VECTOR('',#1,1.9E0);
#3=CARTESIAN_POINT('',(1.E0,0.E0,9.5E-1));
#4=LINE('',#3,#2);
#5=DIRECTION('',(-1.E0,0.E0,0.E0));
#6=VECTOR('',#5,2.E0);
#7=CARTESIAN_POINT('',(1.E0,0.E0,-9.5E-1));
#8=LINE('',#7,#6);
#9=DIRECTION('',(0.E0,0.E0,-1.E0));
#10=VECTOR('',#9,1.9E0);
#11=CARTESIAN_POINT('',(-1.E0,0.E0,9.5E-1));
#12=LINE('',#11,#10);
#13=DIRECTION('',(1.E0,0.E0,0.E0));
#14=VECTOR('',#13,2.E0);
#15=CARTESIAN_POINT('',(-1.E0,0.E0,9.5E-1));
#16=LINE('',#15,#14);
#17=DIRECTION('',(0.E0,1.E0,0.E0));
#18=VECTOR('',#17,1.E-1);
#19=CARTESIAN_POINT('',(1.E0,-1.E-1,-9.5E-1));
#20=LINE('',#19,#18);
#21=DIRECTION('',(0.E0,1.E0,0.E0));
#22=VECTOR('',#21,1.E-1);
#23=CARTESIAN_POINT('',(1.E0,8.1E-1,-9.5E-1));
#24=LINE('',#23,#22);
#25=DIRECTION('',(0.E0,1.E0,0.E0));
#26=VECTOR('',#25,1.E-1);
#27=CARTESIAN_POINT('',(1.E0,8.1E-1,9.5E-1));
#28=LINE('',#27,#26);
#29=DIRECTION('',(0.E0,1.E0,0.E0));
#30=VECTOR('',#29,1.E-1);
#31=CARTESIAN_POINT('',(1.E0,-1.E-1,9.5E-1));
#32=LINE('',#31,#30);
#33=DIRECTION('',(0.E0,-1.E0,0.E0));
#34=VECTOR('',#33,1.01E0);
#35=CARTESIAN_POINT('',(-1.7E0,9.1E-1,9.5E-1));
#36=LINE('',#35,#34);
#37=DIRECTION('',(0.E0,1.E0,0.E0));
#38=VECTOR('',#37,1.01E0);
#39=CARTESIAN_POINT('',(-1.7E0,-1.E-1,-4.E-1));
#40=LINE('',#39,#38);
#41=DIRECTION('',(0.E0,-1.E0,0.E0));
#42=VECTOR('',#41,1.01E0);
#43=CARTESIAN_POINT('',(-1.7E0,9.1E-1,4.E-1));
#44=LINE('',#43,#42);
#45=DIRECTION('',(0.E0,1.E0,0.E0));
#46=VECTOR('',#45,1.01E0);
#47=CARTESIAN_POINT('',(-1.7E0,-1.E-1,-9.5E-1));
#48=LINE('',#47,#46);
#49=DIRECTION('',(0.E0,1.E0,0.E0));
#50=VECTOR('',#49,1.E-1);
#51=CARTESIAN_POINT('',(-1.E0,8.1E-1,-9.5E-1));
#52=LINE('',#51,#50);
#53=DIRECTION('',(0.E0,1.E0,0.E0));
#54=VECTOR('',#53,1.E-1);
#55=CARTESIAN_POINT('',(-1.E0,-1.E-1,-9.5E-1));
#56=LINE('',#55,#54);
#57=DIRECTION('',(0.E0,1.E0,0.E0));
#58=VECTOR('',#57,1.01E0);
#59=CARTESIAN_POINT('',(1.7E0,-1.E-1,-9.5E-1));
#60=LINE('',#59,#58);
#61=DIRECTION('',(0.E0,0.E0,-1.E0));
#62=VECTOR('',#61,1.9E0);
#63=CARTESIAN_POINT('',(1.E0,8.1E-1,9.5E-1));
#64=LINE('',#63,#62);
#65=DIRECTION('',(1.E0,0.E0,0.E0));
#66=VECTOR('',#65,2.E0);
#67=CARTESIAN_POINT('',(-1.E0,8.1E-1,9.5E-1));
#68=LINE('',#67,#66);
#69=DIRECTION('',(0.E0,0.E0,-1.E0));
#70=VECTOR('',#69,1.9E0);
#71=CARTESIAN_POINT('',(-1.E0,8.1E-1,9.5E-1));
#72=LINE('',#71,#70);
#73=DIRECTION('',(-1.E0,0.E0,0.E0));
#74=VECTOR('',#73,2.E0);
#75=CARTESIAN_POINT('',(1.E0,8.1E-1,-9.5E-1));
#76=LINE('',#75,#74);
#77=DIRECTION('',(0.E0,1.E0,0.E0));
#78=VECTOR('',#77,1.E-1);
#79=CARTESIAN_POINT('',(-1.E0,-1.E-1,9.5E-1));
#80=LINE('',#79,#78);
#81=DIRECTION('',(0.E0,1.E0,0.E0));
#82=VECTOR('',#81,1.E-1);
#83=CARTESIAN_POINT('',(-1.E0,8.1E-1,9.5E-1));
#84=LINE('',#83,#82);
#85=DIRECTION('',(0.E0,0.E0,1.E0));
#86=VECTOR('',#85,1.9E0);
#87=CARTESIAN_POINT('',(1.E0,-1.E-1,-9.5E-1));
#88=LINE('',#87,#86);
#89=DIRECTION('',(1.E0,0.E0,0.E0));
#90=VECTOR('',#89,7.E-1);
#91=CARTESIAN_POINT('',(1.E0,-1.E-1,9.5E-1));
#92=LINE('',#91,#90);
#93=DIRECTION('',(0.E0,0.E0,-1.E0));
#94=VECTOR('',#93,5.5E-1);
#95=CARTESIAN_POINT('',(1.7E0,-1.E-1,9.5E-1));
#96=LINE('',#95,#94);
#97=CARTESIAN_POINT('',(1.7E0,-1.E-1,0.E0));
#98=DIRECTION('',(0.E0,-1.E0,0.E0));
#99=DIRECTION('',(0.E0,0.E0,1.E0));
#100=AXIS2_PLACEMENT_3D('',#97,#98,#99);
#102=DIRECTION('',(0.E0,0.E0,-1.E0));
#103=VECTOR('',#102,5.5E-1);
#104=CARTESIAN_POINT('',(1.7E0,-1.E-1,-4.E-1));
#105=LINE('',#104,#103);
#106=DIRECTION('',(-1.E0,0.E0,0.E0));
#107=VECTOR('',#106,7.E-1);
#108=CARTESIAN_POINT('',(1.7E0,-1.E-1,-9.5E-1));
#109=LINE('',#108,#107);
#110=DIRECTION('',(-1.E0,0.E0,0.E0));
#111=VECTOR('',#110,7.E-1);
#112=CARTESIAN_POINT('',(-1.E0,-1.E-1,-9.5E-1));
#113=LINE('',#112,#111);
#114=DIRECTION('',(0.E0,0.E0,1.E0));
#115=VECTOR('',#114,5.5E-1);
#116=CARTESIAN_POINT('',(-1.7E0,-1.E-1,-9.5E-1));
#117=LINE('',#116,#115);
#118=CARTESIAN_POINT('',(-1.7E0,-1.E-1,0.E0));
#119=DIRECTION('',(0.E0,-1.E0,0.E0));
#120=DIRECTION('',(0.E0,0.E0,-1.E0));
#121=AXIS2_PLACEMENT_3D('',#118,#119,#120);
#123=DIRECTION('',(0.E0,0.E0,1.E0));
#124=VECTOR('',#123,5.5E-1);
#125=CARTESIAN_POINT('',(-1.7E0,-1.E-1,4.E-1));
#126=LINE('',#125,#124);
#127=DIRECTION('',(1.E0,0.E0,0.E0));
#128=VECTOR('',#127,7.E-1);
#129=CARTESIAN_POINT('',(-1.7E0,-1.E-1,9.5E-1));
#130=LINE('',#129,#128);
#131=DIRECTION('',(0.E0,0.E0,-1.E0));
#132=VECTOR('',#131,1.9E0);
#133=CARTESIAN_POINT('',(-1.E0,-1.E-1,9.5E-1));
#134=LINE('',#133,#132);
#135=DIRECTION('',(0.E0,1.E0,0.E0));
#136=VECTOR('',#135,1.01E0);
#137=CARTESIAN_POINT('',(1.7E0,-1.E-1,9.5E-1));
#138=LINE('',#137,#136);
#139=DIRECTION('',(0.E0,0.E0,1.E0));
#140=VECTOR('',#139,1.9E0);
#141=CARTESIAN_POINT('',(1.E0,9.1E-1,-9.5E-1));
#142=LINE('',#141,#140);
#143=DIRECTION('',(-1.E0,0.E0,0.E0));
#144=VECTOR('',#143,7.E-1);
#145=CARTESIAN_POINT('',(1.7E0,9.1E-1,-9.5E-1));
#146=LINE('',#145,#144);
#147=DIRECTION('',(0.E0,0.E0,-1.E0));
#148=VECTOR('',#147,5.5E-1);
#149=CARTESIAN_POINT('',(1.7E0,9.1E-1,-4.E-1));
#150=LINE('',#149,#148);
#151=CARTESIAN_POINT('',(1.7E0,9.1E-1,0.E0));
#152=DIRECTION('',(0.E0,-1.E0,0.E0));
#153=DIRECTION('',(0.E0,0.E0,1.E0));
#154=AXIS2_PLACEMENT_3D('',#151,#152,#153);
#156=DIRECTION('',(0.E0,0.E0,-1.E0));
#157=VECTOR('',#156,5.5E-1);
#158=CARTESIAN_POINT('',(1.7E0,9.1E-1,9.5E-1));
#159=LINE('',#158,#157);
#160=DIRECTION('',(1.E0,0.E0,0.E0));
#161=VECTOR('',#160,7.E-1);
#162=CARTESIAN_POINT('',(1.E0,9.1E-1,9.5E-1));
#163=LINE('',#162,#161);
#164=DIRECTION('',(-1.E0,0.E0,0.E0));
#165=VECTOR('',#164,7.E-1);
#166=CARTESIAN_POINT('',(-1.E0,9.1E-1,-9.5E-1));
#167=LINE('',#166,#165);
#168=DIRECTION('',(0.E0,0.E0,-1.E0));
#169=VECTOR('',#168,1.9E0);
#170=CARTESIAN_POINT('',(-1.E0,9.1E-1,9.5E-1));
#171=LINE('',#170,#169);
#172=DIRECTION('',(1.E0,0.E0,0.E0));
#173=VECTOR('',#172,7.E-1);
#174=CARTESIAN_POINT('',(-1.7E0,9.1E-1,9.5E-1));
#175=LINE('',#174,#173);
#176=DIRECTION('',(0.E0,0.E0,1.E0));
#177=VECTOR('',#176,5.5E-1);
#178=CARTESIAN_POINT('',(-1.7E0,9.1E-1,4.E-1));
#179=LINE('',#178,#177);
#180=CARTESIAN_POINT('',(-1.7E0,9.1E-1,0.E0));
#181=DIRECTION('',(0.E0,-1.E0,0.E0));
#182=DIRECTION('',(0.E0,0.E0,-1.E0));
#183=AXIS2_PLACEMENT_3D('',#180,#181,#182);
#185=DIRECTION('',(0.E0,0.E0,1.E0));
#186=VECTOR('',#185,5.5E-1);
#187=CARTESIAN_POINT('',(-1.7E0,9.1E-1,-9.5E-1));
#188=LINE('',#187,#186);
#189=DIRECTION('',(0.E0,1.E0,0.E0));
#190=VECTOR('',#189,1.01E0);
#191=CARTESIAN_POINT('',(1.7E0,-1.E-1,4.E-1));
#192=LINE('',#191,#190);
#193=DIRECTION('',(0.E0,-1.E0,0.E0));
#194=VECTOR('',#193,1.01E0);
#195=CARTESIAN_POINT('',(1.7E0,9.1E-1,-4.E-1));
#196=LINE('',#195,#194);
#197=CARTESIAN_POINT('',(1.E0,-1.E-1,-9.5E-1));
#198=CARTESIAN_POINT('',(1.E0,-1.E-1,9.5E-1));
#199=VERTEX_POINT('',#197);
#200=VERTEX_POINT('',#198);
#201=CARTESIAN_POINT('',(1.7E0,-1.E-1,9.5E-1));
#202=VERTEX_POINT('',#201);
#203=CARTESIAN_POINT('',(1.7E0,-1.E-1,4.E-1));
#204=VERTEX_POINT('',#203);
#205=CARTESIAN_POINT('',(1.7E0,-1.E-1,-4.E-1));
#206=CARTESIAN_POINT('',(1.7E0,-1.E-1,-9.5E-1));
#207=VERTEX_POINT('',#205);
#208=VERTEX_POINT('',#206);
#209=CARTESIAN_POINT('',(-1.E0,-1.E-1,-9.5E-1));
#210=CARTESIAN_POINT('',(-1.7E0,-1.E-1,-9.5E-1));
#211=VERTEX_POINT('',#209);
#212=VERTEX_POINT('',#210);
#213=CARTESIAN_POINT('',(-1.7E0,-1.E-1,-4.E-1));
#214=VERTEX_POINT('',#213);
#215=CARTESIAN_POINT('',(-1.7E0,-1.E-1,4.E-1));
#216=CARTESIAN_POINT('',(-1.7E0,-1.E-1,9.5E-1));
#217=VERTEX_POINT('',#215);
#218=VERTEX_POINT('',#216);
#219=CARTESIAN_POINT('',(-1.E0,-1.E-1,9.5E-1));
#220=VERTEX_POINT('',#219);
#221=CARTESIAN_POINT('',(1.E0,9.1E-1,-9.5E-1));
#222=CARTESIAN_POINT('',(1.E0,9.1E-1,9.5E-1));
#223=VERTEX_POINT('',#221);
#224=VERTEX_POINT('',#222);
#225=CARTESIAN_POINT('',(1.7E0,9.1E-1,9.5E-1));
#226=VERTEX_POINT('',#225);
#227=CARTESIAN_POINT('',(1.7E0,9.1E-1,4.E-1));
#228=VERTEX_POINT('',#227);
#229=CARTESIAN_POINT('',(1.7E0,9.1E-1,-4.E-1));
#230=CARTESIAN_POINT('',(1.7E0,9.1E-1,-9.5E-1));
#231=VERTEX_POINT('',#229);
#232=VERTEX_POINT('',#230);
#233=CARTESIAN_POINT('',(-1.E0,9.1E-1,-9.5E-1));
#234=CARTESIAN_POINT('',(-1.7E0,9.1E-1,-9.5E-1));
#235=VERTEX_POINT('',#233);
#236=VERTEX_POINT('',#234);
#237=CARTESIAN_POINT('',(-1.7E0,9.1E-1,-4.E-1));
#238=VERTEX_POINT('',#237);
#239=CARTESIAN_POINT('',(-1.7E0,9.1E-1,4.E-1));
#240=CARTESIAN_POINT('',(-1.7E0,9.1E-1,9.5E-1));
#241=VERTEX_POINT('',#239);
#242=VERTEX_POINT('',#240);
#243=CARTESIAN_POINT('',(-1.E0,9.1E-1,9.5E-1));
#244=VERTEX_POINT('',#243);
#245=CARTESIAN_POINT('',(1.E0,0.E0,9.5E-1));
#246=CARTESIAN_POINT('',(1.E0,0.E0,-9.5E-1));
#247=VERTEX_POINT('',#245);
#248=VERTEX_POINT('',#246);
#249=CARTESIAN_POINT('',(-1.E0,0.E0,9.5E-1));
#250=CARTESIAN_POINT('',(-1.E0,0.E0,-9.5E-1));
#251=VERTEX_POINT('',#249);
#252=VERTEX_POINT('',#250);
#253=CARTESIAN_POINT('',(1.E0,8.1E-1,9.5E-1));
#254=CARTESIAN_POINT('',(1.E0,8.1E-1,-9.5E-1));
#255=VERTEX_POINT('',#253);
#256=VERTEX_POINT('',#254);
#257=CARTESIAN_POINT('',(-1.E0,8.1E-1,9.5E-1));
#258=CARTESIAN_POINT('',(-1.E0,8.1E-1,-9.5E-1));
#259=VERTEX_POINT('',#257);
#260=VERTEX_POINT('',#258);
#261=CARTESIAN_POINT('',(0.E0,0.E0,0.E0));
#262=DIRECTION('',(0.E0,1.E0,0.E0));
#263=DIRECTION('',(1.E0,0.E0,0.E0));
#264=AXIS2_PLACEMENT_3D('',#261,#262,#263);
#265=PLANE('',#264);
#267=ORIENTED_EDGE('',*,*,#266,.T.);
#269=ORIENTED_EDGE('',*,*,#268,.T.);
#271=ORIENTED_EDGE('',*,*,#270,.F.);
#273=ORIENTED_EDGE('',*,*,#272,.T.);
#274=EDGE_LOOP('',(#267,#269,#271,#273));
#275=FACE_OUTER_BOUND('',#274,.F.);
#277=CARTESIAN_POINT('',(1.E0,-1.E-1,-9.5E-1));
#278=DIRECTION('',(-1.E0,0.E0,0.E0));
#279=DIRECTION('',(0.E0,0.E0,1.E0));
#280=AXIS2_PLACEMENT_3D('',#277,#278,#279);
#281=PLANE('',#280);
#282=ORIENTED_EDGE('',*,*,#266,.F.);
#284=ORIENTED_EDGE('',*,*,#283,.F.);
#286=ORIENTED_EDGE('',*,*,#285,.F.);
#288=ORIENTED_EDGE('',*,*,#287,.T.);
#289=EDGE_LOOP('',(#282,#284,#286,#288));
#290=FACE_OUTER_BOUND('',#289,.F.);
#292=CARTESIAN_POINT('',(1.E0,-1.E-1,-9.5E-1));
#293=DIRECTION('',(-1.E0,0.E0,0.E0));
#294=DIRECTION('',(0.E0,0.E0,1.E0));
#295=AXIS2_PLACEMENT_3D('',#292,#293,#294);
#296=PLANE('',#295);
#298=ORIENTED_EDGE('',*,*,#297,.T.);
#300=ORIENTED_EDGE('',*,*,#299,.T.);
#302=ORIENTED_EDGE('',*,*,#301,.T.);
#304=ORIENTED_EDGE('',*,*,#303,.F.);
#305=EDGE_LOOP('',(#298,#300,#302,#304));
#306=FACE_OUTER_BOUND('',#305,.F.);
#308=CARTESIAN_POINT('',(-1.7E0,0.E0,9.5E-1));
#309=DIRECTION('',(0.E0,0.E0,1.E0));
#310=DIRECTION('',(1.E0,0.E0,0.E0));
#311=AXIS2_PLACEMENT_3D('',#308,#309,#310);
#312=PLANE('',#311);
#314=ORIENTED_EDGE('',*,*,#313,.F.);
#316=ORIENTED_EDGE('',*,*,#315,.T.);
#318=ORIENTED_EDGE('',*,*,#317,.F.);
#320=ORIENTED_EDGE('',*,*,#319,.T.);
#321=ORIENTED_EDGE('',*,*,#303,.T.);
#323=ORIENTED_EDGE('',*,*,#322,.T.);
#325=ORIENTED_EDGE('',*,*,#324,.F.);
#327=ORIENTED_EDGE('',*,*,#326,.F.);
#328=ORIENTED_EDGE('',*,*,#283,.T.);
#329=ORIENTED_EDGE('',*,*,#272,.F.);
#331=ORIENTED_EDGE('',*,*,#330,.F.);
#333=ORIENTED_EDGE('',*,*,#332,.F.);
#334=EDGE_LOOP('',(#314,#316,#318,#320,#321,#323,#325,#327,#328,#329,#331,
#333));
#335=FACE_OUTER_BOUND('',#334,.F.);
#337=CARTESIAN_POINT('',(-1.7E0,0.E0,4.E-1));
#338=DIRECTION('',(-1.E0,0.E0,0.E0));
#339=DIRECTION('',(0.E0,0.E0,1.E0));
#340=AXIS2_PLACEMENT_3D('',#337,#338,#339);
#341=PLANE('',#340);
#343=ORIENTED_EDGE('',*,*,#342,.F.);
#345=ORIENTED_EDGE('',*,*,#344,.T.);
#346=ORIENTED_EDGE('',*,*,#313,.T.);
#348=ORIENTED_EDGE('',*,*,#347,.F.);
#349=EDGE_LOOP('',(#343,#345,#346,#348));
#350=FACE_OUTER_BOUND('',#349,.F.);
#352=CARTESIAN_POINT('',(-1.7E0,0.E0,0.E0));
#353=DIRECTION('',(0.E0,1.E0,0.E0));
#354=DIRECTION('',(1.E0,0.E0,0.E0));
#355=AXIS2_PLACEMENT_3D('',#352,#353,#354);
#356=CYLINDRICAL_SURFACE('',#355,4.E-1);
#358=ORIENTED_EDGE('',*,*,#357,.T.);
#360=ORIENTED_EDGE('',*,*,#359,.T.);
#361=ORIENTED_EDGE('',*,*,#342,.T.);
#363=ORIENTED_EDGE('',*,*,#362,.F.);
#364=EDGE_LOOP('',(#358,#360,#361,#363));
#365=FACE_OUTER_BOUND('',#364,.F.);
#367=CARTESIAN_POINT('',(-1.7E0,0.E0,-9.5E-1));
#368=DIRECTION('',(-1.E0,0.E0,0.E0));
#369=DIRECTION('',(0.E0,0.E0,1.E0));
#370=AXIS2_PLACEMENT_3D('',#367,#368,#369);
#371=PLANE('',#370);
#373=ORIENTED_EDGE('',*,*,#372,.T.);
#375=ORIENTED_EDGE('',*,*,#374,.T.);
#376=ORIENTED_EDGE('',*,*,#357,.F.);
#378=ORIENTED_EDGE('',*,*,#377,.F.);
#379=EDGE_LOOP('',(#373,#375,#376,#378));
#380=FACE_OUTER_BOUND('',#379,.F.);
#382=CARTESIAN_POINT('',(1.7E0,0.E0,-9.5E-1));
#383=DIRECTION('',(0.E0,0.E0,-1.E0));
#384=DIRECTION('',(-1.E0,0.E0,0.E0));
#385=AXIS2_PLACEMENT_3D('',#382,#383,#384);
#386=PLANE('',#385);
#388=ORIENTED_EDGE('',*,*,#387,.T.);
#390=ORIENTED_EDGE('',*,*,#389,.T.);
#392=ORIENTED_EDGE('',*,*,#391,.T.);
#393=ORIENTED_EDGE('',*,*,#372,.F.);
#395=ORIENTED_EDGE('',*,*,#394,.F.);
#397=ORIENTED_EDGE('',*,*,#396,.T.);
#398=ORIENTED_EDGE('',*,*,#268,.F.);
#399=ORIENTED_EDGE('',*,*,#287,.F.);
#401=ORIENTED_EDGE('',*,*,#400,.F.);
#403=ORIENTED_EDGE('',*,*,#402,.T.);
#405=ORIENTED_EDGE('',*,*,#404,.T.);
#406=ORIENTED_EDGE('',*,*,#299,.F.);
#407=EDGE_LOOP('',(#388,#390,#392,#393,#395,#397,#398,#399,#401,#403,#405,
#406));
#408=FACE_OUTER_BOUND('',#407,.F.);
#410=CARTESIAN_POINT('',(0.E0,8.1E-1,0.E0));
#411=DIRECTION('',(0.E0,1.E0,0.E0));
#412=DIRECTION('',(1.E0,0.E0,0.E0));
#413=AXIS2_PLACEMENT_3D('',#410,#411,#412);
#414=PLANE('',#413);
#415=ORIENTED_EDGE('',*,*,#297,.F.);
#416=ORIENTED_EDGE('',*,*,#319,.F.);
#418=ORIENTED_EDGE('',*,*,#417,.T.);
#419=ORIENTED_EDGE('',*,*,#387,.F.);
#420=EDGE_LOOP('',(#415,#416,#418,#419));
#421=FACE_OUTER_BOUND('',#420,.F.);
#423=CARTESIAN_POINT('',(-1.E0,-1.E-1,9.5E-1));
#424=DIRECTION('',(1.E0,0.E0,0.E0));
#425=DIRECTION('',(0.E0,0.E0,-1.E0));
#426=AXIS2_PLACEMENT_3D('',#423,#424,#425);
#427=PLANE('',#426);
#428=ORIENTED_EDGE('',*,*,#270,.T.);
#429=ORIENTED_EDGE('',*,*,#396,.F.);
#431=ORIENTED_EDGE('',*,*,#430,.F.);
#432=ORIENTED_EDGE('',*,*,#330,.T.);
#433=EDGE_LOOP('',(#428,#429,#431,#432));
#434=FACE_OUTER_BOUND('',#433,.F.);
#436=CARTESIAN_POINT('',(-1.E0,-1.E-1,9.5E-1));
#437=DIRECTION('',(1.E0,0.E0,0.E0));
#438=DIRECTION('',(0.E0,0.E0,-1.E0));
#439=AXIS2_PLACEMENT_3D('',#436,#437,#438);
#440=PLANE('',#439);
#441=ORIENTED_EDGE('',*,*,#417,.F.);
#442=ORIENTED_EDGE('',*,*,#317,.T.);
#444=ORIENTED_EDGE('',*,*,#443,.T.);
#445=ORIENTED_EDGE('',*,*,#389,.F.);
#446=EDGE_LOOP('',(#441,#442,#444,#445));
#447=FACE_OUTER_BOUND('',#446,.F.);
#449=CARTESIAN_POINT('',(0.E0,-1.E-1,0.E0));
#450=DIRECTION('',(0.E0,1.E0,0.E0));
#451=DIRECTION('',(1.E0,0.E0,0.E0));
#452=AXIS2_PLACEMENT_3D('',#449,#450,#451);
#453=PLANE('',#452);
#454=ORIENTED_EDGE('',*,*,#285,.T.);
#455=ORIENTED_EDGE('',*,*,#326,.T.);
#457=ORIENTED_EDGE('',*,*,#456,.T.);
#459=ORIENTED_EDGE('',*,*,#458,.T.);
#461=ORIENTED_EDGE('',*,*,#460,.T.);
#462=ORIENTED_EDGE('',*,*,#400,.T.);
#463=EDGE_LOOP('',(#454,#455,#457,#459,#461,#462));
#464=FACE_OUTER_BOUND('',#463,.F.);
#466=CARTESIAN_POINT('',(0.E0,-1.E-1,0.E0));
#467=DIRECTION('',(0.E0,1.E0,0.E0));
#468=DIRECTION('',(1.E0,0.E0,0.E0));
#469=AXIS2_PLACEMENT_3D('',#466,#467,#468);
#470=PLANE('',#469);
#471=ORIENTED_EDGE('',*,*,#394,.T.);
#472=ORIENTED_EDGE('',*,*,#377,.T.);
#473=ORIENTED_EDGE('',*,*,#362,.T.);
#474=ORIENTED_EDGE('',*,*,#347,.T.);
#475=ORIENTED_EDGE('',*,*,#332,.T.);
#476=ORIENTED_EDGE('',*,*,#430,.T.);
#477=EDGE_LOOP('',(#471,#472,#473,#474,#475,#476));
#478=FACE_OUTER_BOUND('',#477,.F.);
#480=CARTESIAN_POINT('',(1.7E0,0.E0,9.5E-1));
#481=DIRECTION('',(1.E0,0.E0,0.E0));
#482=DIRECTION('',(0.E0,0.E0,-1.E0));
#483=AXIS2_PLACEMENT_3D('',#480,#481,#482);
#484=PLANE('',#483);
#485=ORIENTED_EDGE('',*,*,#324,.T.);
#487=ORIENTED_EDGE('',*,*,#486,.T.);
#489=ORIENTED_EDGE('',*,*,#488,.F.);
#490=ORIENTED_EDGE('',*,*,#456,.F.);
#491=EDGE_LOOP('',(#485,#487,#489,#490));
#492=FACE_OUTER_BOUND('',#491,.F.);
#494=CARTESIAN_POINT('',(0.E0,9.1E-1,0.E0));
#495=DIRECTION('',(0.E0,1.E0,0.E0));
#496=DIRECTION('',(1.E0,0.E0,0.E0));
#497=AXIS2_PLACEMENT_3D('',#494,#495,#496);
#498=PLANE('',#497);
#499=ORIENTED_EDGE('',*,*,#301,.F.);
#500=ORIENTED_EDGE('',*,*,#404,.F.);
#502=ORIENTED_EDGE('',*,*,#501,.F.);
#504=ORIENTED_EDGE('',*,*,#503,.F.);
#505=ORIENTED_EDGE('',*,*,#486,.F.);
#506=ORIENTED_EDGE('',*,*,#322,.F.);
#507=EDGE_LOOP('',(#499,#500,#502,#504,#505,#506));
#508=FACE_OUTER_BOUND('',#507,.F.);
#510=CARTESIAN_POINT('',(0.E0,9.1E-1,0.E0));
#511=DIRECTION('',(0.E0,1.E0,0.E0));
#512=DIRECTION('',(1.E0,0.E0,0.E0));
#513=AXIS2_PLACEMENT_3D('',#510,#511,#512);
#514=PLANE('',#513);
#515=ORIENTED_EDGE('',*,*,#391,.F.);
#516=ORIENTED_EDGE('',*,*,#443,.F.);
#517=ORIENTED_EDGE('',*,*,#315,.F.);
#518=ORIENTED_EDGE('',*,*,#344,.F.);
#519=ORIENTED_EDGE('',*,*,#359,.F.);
#520=ORIENTED_EDGE('',*,*,#374,.F.);
#521=EDGE_LOOP('',(#515,#516,#517,#518,#519,#520));
#522=FACE_OUTER_BOUND('',#521,.F.);
#524=CARTESIAN_POINT('',(1.7E0,0.E0,-4.E-1));
#525=DIRECTION('',(1.E0,0.E0,0.E0));
#526=DIRECTION('',(0.E0,0.E0,-1.E0));
#527=AXIS2_PLACEMENT_3D('',#524,#525,#526);
#528=PLANE('',#527);
#530=ORIENTED_EDGE('',*,*,#529,.F.);
#531=ORIENTED_EDGE('',*,*,#501,.T.);
#532=ORIENTED_EDGE('',*,*,#402,.F.);
#533=ORIENTED_EDGE('',*,*,#460,.F.);
#534=EDGE_LOOP('',(#530,#531,#532,#533));
#535=FACE_OUTER_BOUND('',#534,.F.);
#537=CARTESIAN_POINT('',(1.7E0,0.E0,0.E0));
#538=DIRECTION('',(0.E0,1.E0,0.E0));
#539=DIRECTION('',(1.E0,0.E0,0.E0));
#540=AXIS2_PLACEMENT_3D('',#537,#538,#539);
#541=CYLINDRICAL_SURFACE('',#540,4.E-1);
#542=ORIENTED_EDGE('',*,*,#488,.T.);
#543=ORIENTED_EDGE('',*,*,#503,.T.);
#544=ORIENTED_EDGE('',*,*,#529,.T.);
#545=ORIENTED_EDGE('',*,*,#458,.F.);
#546=EDGE_LOOP('',(#542,#543,#544,#545));
#547=FACE_OUTER_BOUND('',#546,.F.);
#549=CLOSED_SHELL('',(#276,#291,#307,#336,#351,#366,#381,#409,#422,#435,#448,
#465,#479,#493,#509,#523,#536,#548));
#550=MANIFOLD_SOLID_BREP('',#549);
#552=DIMENSIONAL_EXPONENTS(0.E0,0.E0,0.E0,0.E0,0.E0,0.E0,0.E0);
#554=PLANE_ANGLE_MEASURE_WITH_UNIT(PLANE_ANGLE_MEASURE(1.745329251994E-2),#553);
#555=(CONVERSION_BASED_UNIT('DEGREE',#554)NAMED_UNIT(*)PLANE_ANGLE_UNIT());
#557=UNCERTAINTY_MEASURE_WITH_UNIT(LENGTH_MEASURE(1.676471411029E-4),#551,
'closure',
'Maximum model space distance between geometric entities at asserted connectivities');
#560=APPLICATION_CONTEXT(
'CONFIGURATION CONTROLLED 3D DESIGNS OF MECHANICAL PARTS AND ASSEMBLIES');
#561=APPLICATION_PROTOCOL_DEFINITION('international standard',
'config_control_design',1994,#560);
#562=DESIGN_CONTEXT('',#560,'design');
#563=MECHANICAL_CONTEXT('',#560,'mechanical');
#564=PRODUCT('CD1206-BXX','CD1206-BXX','NOT SPECIFIED',(#563));
#565=PRODUCT_DEFINITION_FORMATION_WITH_SPECIFIED_SOURCE('2','LAST_VERSION',#564,
.MADE.);
#569=PRODUCT_CATEGORY('part','');
#570=PRODUCT_RELATED_PRODUCT_CATEGORY('detail','',(#564));
#571=PRODUCT_CATEGORY_RELATIONSHIP('','',#569,#570);
#572=SECURITY_CLASSIFICATION_LEVEL('unclassified');
#573=SECURITY_CLASSIFICATION('','',#572);
#574=CC_DESIGN_SECURITY_CLASSIFICATION(#573,(#565));
#575=APPROVAL_STATUS('approved');
#576=APPROVAL(#575,'');
#577=CC_DESIGN_APPROVAL(#576,(#573,#565,#566));
#578=CALENDAR_DATE(112,18,7);
#579=COORDINATED_UNIVERSAL_TIME_OFFSET(7,0,.BEHIND.);
#580=LOCAL_TIME(11,3,0.E0,#579);
#581=DATE_AND_TIME(#578,#580);
#582=APPROVAL_DATE_TIME(#581,#576);
#583=DATE_TIME_ROLE('creation_date');
#584=CC_DESIGN_DATE_AND_TIME_ASSIGNMENT(#581,#583,(#566));
#585=DATE_TIME_ROLE('classification_date');
#586=CC_DESIGN_DATE_AND_TIME_ASSIGNMENT(#581,#585,(#573));
#587=PERSON('UNSPECIFIED','UNSPECIFIED',$,$,$,$);
#588=ORGANIZATION('UNSPECIFIED','UNSPECIFIED','UNSPECIFIED');
#589=PERSON_AND_ORGANIZATION(#587,#588);
#590=APPROVAL_ROLE('approver');
#591=APPROVAL_PERSON_ORGANIZATION(#589,#576,#590);
#592=PERSON_AND_ORGANIZATION_ROLE('creator');
#593=CC_DESIGN_PERSON_AND_ORGANIZATION_ASSIGNMENT(#589,#592,(#565,#566));
#594=PERSON_AND_ORGANIZATION_ROLE('design_supplier');
#595=CC_DESIGN_PERSON_AND_ORGANIZATION_ASSIGNMENT(#589,#594,(#565));
#596=PERSON_AND_ORGANIZATION_ROLE('classification_officer');
#597=CC_DESIGN_PERSON_AND_ORGANIZATION_ASSIGNMENT(#589,#596,(#573));
#598=PERSON_AND_ORGANIZATION_ROLE('design_owner');
#599=CC_DESIGN_PERSON_AND_ORGANIZATION_ASSIGNMENT(#589,#598,(#564));
#101=CIRCLE('',#100,4.E-1);
#122=CIRCLE('',#121,4.E-1);
#155=CIRCLE('',#154,4.E-1);
#184=CIRCLE('',#183,4.E-1);
#266=EDGE_CURVE('',#247,#248,#4,.T.);
#268=EDGE_CURVE('',#248,#252,#8,.T.);
#270=EDGE_CURVE('',#251,#252,#12,.T.);
#272=EDGE_CURVE('',#251,#247,#16,.T.);
#276=ADVANCED_FACE('',(#275),#265,.F.);
#283=EDGE_CURVE('',#200,#247,#32,.T.);
#285=EDGE_CURVE('',#199,#200,#88,.T.);
#287=EDGE_CURVE('',#199,#248,#20,.T.);
#291=ADVANCED_FACE('',(#290),#281,.T.);
#297=EDGE_CURVE('',#255,#256,#64,.T.);
#299=EDGE_CURVE('',#256,#223,#24,.T.);
#301=EDGE_CURVE('',#223,#224,#142,.T.);
#303=EDGE_CURVE('',#255,#224,#28,.T.);
#307=ADVANCED_FACE('',(#306),#296,.T.);
#313=EDGE_CURVE('',#242,#218,#36,.T.);
#315=EDGE_CURVE('',#242,#244,#175,.T.);
#317=EDGE_CURVE('',#259,#244,#84,.T.);
#319=EDGE_CURVE('',#259,#255,#68,.T.);
#322=EDGE_CURVE('',#224,#226,#163,.T.);
#324=EDGE_CURVE('',#202,#226,#138,.T.);
#326=EDGE_CURVE('',#200,#202,#92,.T.);
#330=EDGE_CURVE('',#220,#251,#80,.T.);
#332=EDGE_CURVE('',#218,#220,#130,.T.);
#336=ADVANCED_FACE('',(#335),#312,.T.);
#342=EDGE_CURVE('',#241,#217,#44,.T.);
#344=EDGE_CURVE('',#241,#242,#179,.T.);
#347=EDGE_CURVE('',#217,#218,#126,.T.);
#351=ADVANCED_FACE('',(#350),#341,.T.);
#357=EDGE_CURVE('',#214,#238,#40,.T.);
#359=EDGE_CURVE('',#238,#241,#184,.T.);
#362=EDGE_CURVE('',#214,#217,#122,.T.);
#366=ADVANCED_FACE('',(#365),#356,.F.);
#372=EDGE_CURVE('',#212,#236,#48,.T.);
#374=EDGE_CURVE('',#236,#238,#188,.T.);
#377=EDGE_CURVE('',#212,#214,#117,.T.);
#381=ADVANCED_FACE('',(#380),#371,.T.);
#387=EDGE_CURVE('',#256,#260,#76,.T.);
#389=EDGE_CURVE('',#260,#235,#52,.T.);
#391=EDGE_CURVE('',#235,#236,#167,.T.);
#394=EDGE_CURVE('',#211,#212,#113,.T.);
#396=EDGE_CURVE('',#211,#252,#56,.T.);
#400=EDGE_CURVE('',#208,#199,#109,.T.);
#402=EDGE_CURVE('',#208,#232,#60,.T.);
#404=EDGE_CURVE('',#232,#223,#146,.T.);
#409=ADVANCED_FACE('',(#408),#386,.T.);
#417=EDGE_CURVE('',#259,#260,#72,.T.);
#422=ADVANCED_FACE('',(#421),#414,.T.);
#430=EDGE_CURVE('',#220,#211,#134,.T.);
#435=ADVANCED_FACE('',(#434),#427,.T.);
#443=EDGE_CURVE('',#244,#235,#171,.T.);
#448=ADVANCED_FACE('',(#447),#440,.T.);
#456=EDGE_CURVE('',#202,#204,#96,.T.);
#458=EDGE_CURVE('',#204,#207,#101,.T.);
#460=EDGE_CURVE('',#207,#208,#105,.T.);
#465=ADVANCED_FACE('',(#464),#453,.F.);
#479=ADVANCED_FACE('',(#478),#470,.F.);
#486=EDGE_CURVE('',#226,#228,#159,.T.);
#488=EDGE_CURVE('',#204,#228,#192,.T.);
#493=ADVANCED_FACE('',(#492),#484,.T.);
#501=EDGE_CURVE('',#231,#232,#150,.T.);
#503=EDGE_CURVE('',#228,#231,#155,.T.);
#509=ADVANCED_FACE('',(#508),#498,.T.);
#523=ADVANCED_FACE('',(#522),#514,.T.);
#529=EDGE_CURVE('',#231,#207,#196,.T.);
#536=ADVANCED_FACE('',(#535),#528,.T.);
#548=ADVANCED_FACE('',(#547),#541,.F.);
#551=(LENGTH_UNIT()NAMED_UNIT(*)SI_UNIT(.MILLI.,.METRE.));
#553=(NAMED_UNIT(*)PLANE_ANGLE_UNIT()SI_UNIT($,.RADIAN.));
#556=(NAMED_UNIT(*)SI_UNIT($,.STERADIAN.)SOLID_ANGLE_UNIT());
#558=(GEOMETRIC_REPRESENTATION_CONTEXT(3)GLOBAL_UNCERTAINTY_ASSIGNED_CONTEXT((
#557))GLOBAL_UNIT_ASSIGNED_CONTEXT((#551,#555,#556))REPRESENTATION_CONTEXT
('ID1','3'));
#559=ADVANCED_BREP_SHAPE_REPRESENTATION('',(#550),#558);
#566=PRODUCT_DEFINITION('design','',#565,#562);
#567=PRODUCT_DEFINITION_SHAPE('','SHAPE FOR CD1206-BXX.',#566);
#568=SHAPE_DEFINITION_REPRESENTATION(#567,#559);
ENDSEC;
END-ISO-10303-21;
