ISO-10303-21;
HEADER;
FILE_DESCRIPTION((''),'2;1');
FILE_NAME('CD1206-S01575','2012-07-18T',('ryans'),('Bourns, Inc.'),
'PRO/ENGINEER BY PARAMETRIC TECHNOLOGY CORPORATION, 2010100',
'PRO/ENGINEER BY PARAMETRIC TECHNOLOGY CORPORATION, 2010100','');
FILE_SCHEMA(('CONFIG_CONTROL_DESIGN'));
ENDSEC;
DATA;
#1=DIRECTION('',(0.E0,0.E0,-1.E0));
#2=VECTOR('',#1,1.5E0);
#3=CARTESIAN_POINT('',(-1.05E0,0.E0,7.5E-1));
#4=LINE('',#3,#2);
#5=DIRECTION('',(-1.E0,0.E0,0.E0));
#6=VECTOR('',#5,5.5E-1);
#7=CARTESIAN_POINT('',(-1.05E0,0.E0,-7.5E-1));
#8=LINE('',#7,#6);
#9=DIRECTION('',(0.E0,0.E0,1.E0));
#10=VECTOR('',#9,1.5E0);
#11=CARTESIAN_POINT('',(-1.6E0,0.E0,-7.5E-1));
#12=LINE('',#11,#10);
#13=DIRECTION('',(1.E0,0.E0,0.E0));
#14=VECTOR('',#13,5.5E-1);
#15=CARTESIAN_POINT('',(-1.6E0,0.E0,7.5E-1));
#16=LINE('',#15,#14);
#17=DIRECTION('',(0.E0,0.E0,-1.E0));
#18=VECTOR('',#17,1.5E0);
#19=CARTESIAN_POINT('',(1.05E0,0.E0,7.5E-1));
#20=LINE('',#19,#18);
#21=DIRECTION('',(1.E0,0.E0,0.E0));
#22=VECTOR('',#21,5.5E-1);
#23=CARTESIAN_POINT('',(1.05E0,0.E0,7.5E-1));
#24=LINE('',#23,#22);
#25=DIRECTION('',(0.E0,0.E0,-1.E0));
#26=VECTOR('',#25,1.5E0);
#27=CARTESIAN_POINT('',(1.6E0,0.E0,7.5E-1));
#28=LINE('',#27,#26);
#29=DIRECTION('',(-1.E0,0.E0,0.E0));
#30=VECTOR('',#29,5.5E-1);
#31=CARTESIAN_POINT('',(1.6E0,0.E0,-7.5E-1));
#32=LINE('',#31,#30);
#33=DIRECTION('',(0.E0,0.E0,1.E0));
#34=VECTOR('',#33,1.5E0);
#35=CARTESIAN_POINT('',(-1.05E0,1.5E-1,-7.5E-1));
#36=LINE('',#35,#34);
#37=DIRECTION('',(0.E0,1.E0,0.E0));
#38=VECTOR('',#37,1.5E-1);
#39=CARTESIAN_POINT('',(-1.05E0,0.E0,7.5E-1));
#40=LINE('',#39,#38);
#41=DIRECTION('',(0.E0,1.E0,0.E0));
#42=VECTOR('',#41,8.5E-1);
#43=CARTESIAN_POINT('',(-1.6E0,0.E0,7.5E-1));
#44=LINE('',#43,#42);
#45=DIRECTION('',(0.E0,1.E0,0.E0));
#46=VECTOR('',#45,1.5E-1);
#47=CARTESIAN_POINT('',(1.05E0,0.E0,7.5E-1));
#48=LINE('',#47,#46);
#49=DIRECTION('',(-1.E0,0.E0,0.E0));
#50=VECTOR('',#49,2.1E0);
#51=CARTESIAN_POINT('',(1.05E0,1.5E-1,7.5E-1));
#52=LINE('',#51,#50);
#53=DIRECTION('',(0.E0,1.E0,0.E0));
#54=VECTOR('',#53,8.5E-1);
#55=CARTESIAN_POINT('',(-1.6E0,0.E0,-7.5E-1));
#56=LINE('',#55,#54);
#57=DIRECTION('',(0.E0,1.E0,0.E0));
#58=VECTOR('',#57,1.5E-1);
#59=CARTESIAN_POINT('',(-1.05E0,0.E0,-7.5E-1));
#60=LINE('',#59,#58);
#61=DIRECTION('',(-1.E0,0.E0,0.E0));
#62=VECTOR('',#61,2.1E0);
#63=CARTESIAN_POINT('',(1.05E0,1.5E-1,-7.5E-1));
#64=LINE('',#63,#62);
#65=DIRECTION('',(0.E0,1.E0,0.E0));
#66=VECTOR('',#65,1.5E-1);
#67=CARTESIAN_POINT('',(1.05E0,0.E0,-7.5E-1));
#68=LINE('',#67,#66);
#69=DIRECTION('',(0.E0,1.E0,0.E0));
#70=VECTOR('',#69,8.5E-1);
#71=CARTESIAN_POINT('',(1.6E0,0.E0,-7.5E-1));
#72=LINE('',#71,#70);
#73=DIRECTION('',(0.E0,0.E0,1.E0));
#74=VECTOR('',#73,1.5E0);
#75=CARTESIAN_POINT('',(1.05E0,1.5E-1,-7.5E-1));
#76=LINE('',#75,#74);
#77=DIRECTION('',(0.E0,1.E0,0.E0));
#78=VECTOR('',#77,8.5E-1);
#79=CARTESIAN_POINT('',(1.6E0,0.E0,7.5E-1));
#80=LINE('',#79,#78);
#81=DIRECTION('',(0.E0,0.E0,1.E0));
#82=VECTOR('',#81,1.5E0);
#83=CARTESIAN_POINT('',(-1.6E0,8.5E-1,-7.5E-1));
#84=LINE('',#83,#82);
#85=DIRECTION('',(-1.E0,0.E0,0.E0));
#86=VECTOR('',#85,3.2E0);
#87=CARTESIAN_POINT('',(1.6E0,8.5E-1,-7.5E-1));
#88=LINE('',#87,#86);
#89=DIRECTION('',(0.E0,0.E0,-1.E0));
#90=VECTOR('',#89,1.5E0);
#91=CARTESIAN_POINT('',(1.6E0,8.5E-1,7.5E-1));
#92=LINE('',#91,#90);
#93=DIRECTION('',(1.E0,0.E0,0.E0));
#94=VECTOR('',#93,3.2E0);
#95=CARTESIAN_POINT('',(-1.6E0,8.5E-1,7.5E-1));
#96=LINE('',#95,#94);
#97=CARTESIAN_POINT('',(-1.6E0,0.E0,-7.5E-1));
#98=CARTESIAN_POINT('',(-1.6E0,0.E0,7.5E-1));
#99=VERTEX_POINT('',#97);
#100=VERTEX_POINT('',#98);
#101=CARTESIAN_POINT('',(1.6E0,0.E0,7.5E-1));
#102=CARTESIAN_POINT('',(1.6E0,0.E0,-7.5E-1));
#103=VERTEX_POINT('',#101);
#104=VERTEX_POINT('',#102);
#105=CARTESIAN_POINT('',(-1.6E0,8.5E-1,-7.5E-1));
#106=CARTESIAN_POINT('',(-1.6E0,8.5E-1,7.5E-1));
#107=VERTEX_POINT('',#105);
#108=VERTEX_POINT('',#106);
#109=CARTESIAN_POINT('',(1.6E0,8.5E-1,7.5E-1));
#110=VERTEX_POINT('',#109);
#111=CARTESIAN_POINT('',(1.6E0,8.5E-1,-7.5E-1));
#112=VERTEX_POINT('',#111);
#113=CARTESIAN_POINT('',(-1.05E0,0.E0,7.5E-1));
#114=CARTESIAN_POINT('',(-1.05E0,0.E0,-7.5E-1));
#115=VERTEX_POINT('',#113);
#116=VERTEX_POINT('',#114);
#117=CARTESIAN_POINT('',(1.05E0,0.E0,7.5E-1));
#118=CARTESIAN_POINT('',(1.05E0,0.E0,-7.5E-1));
#119=VERTEX_POINT('',#117);
#120=VERTEX_POINT('',#118);
#121=CARTESIAN_POINT('',(-1.05E0,1.5E-1,7.5E-1));
#122=VERTEX_POINT('',#121);
#123=CARTESIAN_POINT('',(1.05E0,1.5E-1,7.5E-1));
#124=VERTEX_POINT('',#123);
#125=CARTESIAN_POINT('',(-1.05E0,1.5E-1,-7.5E-1));
#126=VERTEX_POINT('',#125);
#127=CARTESIAN_POINT('',(1.05E0,1.5E-1,-7.5E-1));
#128=VERTEX_POINT('',#127);
#129=CARTESIAN_POINT('',(0.E0,0.E0,0.E0));
#130=DIRECTION('',(0.E0,1.E0,0.E0));
#131=DIRECTION('',(1.E0,0.E0,0.E0));
#132=AXIS2_PLACEMENT_3D('',#129,#130,#131);
#133=PLANE('',#132);
#135=ORIENTED_EDGE('',*,*,#134,.T.);
#137=ORIENTED_EDGE('',*,*,#136,.T.);
#139=ORIENTED_EDGE('',*,*,#138,.T.);
#141=ORIENTED_EDGE('',*,*,#140,.T.);
#142=EDGE_LOOP('',(#135,#137,#139,#141));
#143=FACE_OUTER_BOUND('',#142,.F.);
#145=CARTESIAN_POINT('',(0.E0,0.E0,0.E0));
#146=DIRECTION('',(0.E0,1.E0,0.E0));
#147=DIRECTION('',(1.E0,0.E0,0.E0));
#148=AXIS2_PLACEMENT_3D('',#145,#146,#147);
#149=PLANE('',#148);
#151=ORIENTED_EDGE('',*,*,#150,.F.);
#153=ORIENTED_EDGE('',*,*,#152,.T.);
#155=ORIENTED_EDGE('',*,*,#154,.T.);
#157=ORIENTED_EDGE('',*,*,#156,.T.);
#158=EDGE_LOOP('',(#151,#153,#155,#157));
#159=FACE_OUTER_BOUND('',#158,.F.);
#161=CARTESIAN_POINT('',(-1.05E0,1.5E-1,-9.E-1));
#162=DIRECTION('',(-1.E0,0.E0,0.E0));
#163=DIRECTION('',(0.E0,-1.E0,0.E0));
#164=AXIS2_PLACEMENT_3D('',#161,#162,#163);
#165=PLANE('',#164);
#166=ORIENTED_EDGE('',*,*,#134,.F.);
#168=ORIENTED_EDGE('',*,*,#167,.T.);
#170=ORIENTED_EDGE('',*,*,#169,.F.);
#172=ORIENTED_EDGE('',*,*,#171,.F.);
#173=EDGE_LOOP('',(#166,#168,#170,#172));
#174=FACE_OUTER_BOUND('',#173,.F.);
#176=CARTESIAN_POINT('',(-1.6E0,0.E0,7.5E-1));
#177=DIRECTION('',(0.E0,0.E0,1.E0));
#178=DIRECTION('',(1.E0,0.E0,0.E0));
#179=AXIS2_PLACEMENT_3D('',#176,#177,#178);
#180=PLANE('',#179);
#181=ORIENTED_EDGE('',*,*,#167,.F.);
#182=ORIENTED_EDGE('',*,*,#140,.F.);
#184=ORIENTED_EDGE('',*,*,#183,.T.);
#186=ORIENTED_EDGE('',*,*,#185,.T.);
#188=ORIENTED_EDGE('',*,*,#187,.F.);
#189=ORIENTED_EDGE('',*,*,#152,.F.);
#191=ORIENTED_EDGE('',*,*,#190,.T.);
#193=ORIENTED_EDGE('',*,*,#192,.T.);
#194=EDGE_LOOP('',(#181,#182,#184,#186,#188,#189,#191,#193));
#195=FACE_OUTER_BOUND('',#194,.F.);
#197=CARTESIAN_POINT('',(-1.6E0,0.E0,-7.5E-1));
#198=DIRECTION('',(-1.E0,0.E0,0.E0));
#199=DIRECTION('',(0.E0,0.E0,1.E0));
#200=AXIS2_PLACEMENT_3D('',#197,#198,#199);
#201=PLANE('',#200);
#202=ORIENTED_EDGE('',*,*,#138,.F.);
#204=ORIENTED_EDGE('',*,*,#203,.T.);
#206=ORIENTED_EDGE('',*,*,#205,.T.);
#207=ORIENTED_EDGE('',*,*,#183,.F.);
#208=EDGE_LOOP('',(#202,#204,#206,#207));
#209=FACE_OUTER_BOUND('',#208,.F.);
#211=CARTESIAN_POINT('',(1.6E0,0.E0,-7.5E-1));
#212=DIRECTION('',(0.E0,0.E0,-1.E0));
#213=DIRECTION('',(-1.E0,0.E0,0.E0));
#214=AXIS2_PLACEMENT_3D('',#211,#212,#213);
#215=PLANE('',#214);
#216=ORIENTED_EDGE('',*,*,#171,.T.);
#218=ORIENTED_EDGE('',*,*,#217,.F.);
#220=ORIENTED_EDGE('',*,*,#219,.F.);
#221=ORIENTED_EDGE('',*,*,#156,.F.);
#223=ORIENTED_EDGE('',*,*,#222,.T.);
#225=ORIENTED_EDGE('',*,*,#224,.T.);
#226=ORIENTED_EDGE('',*,*,#203,.F.);
#227=ORIENTED_EDGE('',*,*,#136,.F.);
#228=EDGE_LOOP('',(#216,#218,#220,#221,#223,#225,#226,#227));
#229=FACE_OUTER_BOUND('',#228,.F.);
#231=CARTESIAN_POINT('',(1.05E0,1.5E-1,-9.E-1));
#232=DIRECTION('',(0.E0,1.E0,0.E0));
#233=DIRECTION('',(-1.E0,0.E0,0.E0));
#234=AXIS2_PLACEMENT_3D('',#231,#232,#233);
#235=PLANE('',#234);
#236=ORIENTED_EDGE('',*,*,#192,.F.);
#238=ORIENTED_EDGE('',*,*,#237,.F.);
#239=ORIENTED_EDGE('',*,*,#217,.T.);
#240=ORIENTED_EDGE('',*,*,#169,.T.);
#241=EDGE_LOOP('',(#236,#238,#239,#240));
#242=FACE_OUTER_BOUND('',#241,.F.);
#244=CARTESIAN_POINT('',(1.05E0,0.E0,-9.E-1));
#245=DIRECTION('',(1.E0,0.E0,0.E0));
#246=DIRECTION('',(0.E0,1.E0,0.E0));
#247=AXIS2_PLACEMENT_3D('',#244,#245,#246);
#248=PLANE('',#247);
#249=ORIENTED_EDGE('',*,*,#150,.T.);
#250=ORIENTED_EDGE('',*,*,#219,.T.);
#251=ORIENTED_EDGE('',*,*,#237,.T.);
#252=ORIENTED_EDGE('',*,*,#190,.F.);
#253=EDGE_LOOP('',(#249,#250,#251,#252));
#254=FACE_OUTER_BOUND('',#253,.F.);
#256=CARTESIAN_POINT('',(1.6E0,0.E0,7.5E-1));
#257=DIRECTION('',(1.E0,0.E0,0.E0));
#258=DIRECTION('',(0.E0,0.E0,-1.E0));
#259=AXIS2_PLACEMENT_3D('',#256,#257,#258);
#260=PLANE('',#259);
#261=ORIENTED_EDGE('',*,*,#154,.F.);
#262=ORIENTED_EDGE('',*,*,#187,.T.);
#264=ORIENTED_EDGE('',*,*,#263,.T.);
#265=ORIENTED_EDGE('',*,*,#222,.F.);
#266=EDGE_LOOP('',(#261,#262,#264,#265));
#267=FACE_OUTER_BOUND('',#266,.F.);
#269=CARTESIAN_POINT('',(0.E0,8.5E-1,0.E0));
#270=DIRECTION('',(0.E0,1.E0,0.E0));
#271=DIRECTION('',(1.E0,0.E0,0.E0));
#272=AXIS2_PLACEMENT_3D('',#269,#270,#271);
#273=PLANE('',#272);
#274=ORIENTED_EDGE('',*,*,#205,.F.);
#275=ORIENTED_EDGE('',*,*,#224,.F.);
#276=ORIENTED_EDGE('',*,*,#263,.F.);
#277=ORIENTED_EDGE('',*,*,#185,.F.);
#278=EDGE_LOOP('',(#274,#275,#276,#277));
#279=FACE_OUTER_BOUND('',#278,.F.);
#281=CLOSED_SHELL('',(#144,#160,#175,#196,#210,#230,#243,#255,#268,#280));
#282=MANIFOLD_SOLID_BREP('',#281);
#284=DIMENSIONAL_EXPONENTS(0.E0,0.E0,0.E0,0.E0,0.E0,0.E0,0.E0);
#286=PLANE_ANGLE_MEASURE_WITH_UNIT(PLANE_ANGLE_MEASURE(1.745329251994E-2),#285);
#287=(CONVERSION_BASED_UNIT('DEGREE',#286)NAMED_UNIT(*)PLANE_ANGLE_UNIT());
#289=UNCERTAINTY_MEASURE_WITH_UNIT(LENGTH_MEASURE(1.514481199052E-4),#283,
'closure',
'Maximum model space distance between geometric entities at asserted connectivities');
#292=APPLICATION_CONTEXT(
'CONFIGURATION CONTROLLED 3D DESIGNS OF MECHANICAL PARTS AND ASSEMBLIES');
#293=APPLICATION_PROTOCOL_DEFINITION('international standard',
'config_control_design',1994,#292);
#294=DESIGN_CONTEXT('',#292,'design');
#295=MECHANICAL_CONTEXT('',#292,'mechanical');
#296=PRODUCT('CD1206-S01575','CD1206-S01575','NOT SPECIFIED',(#295));
#297=PRODUCT_DEFINITION_FORMATION_WITH_SPECIFIED_SOURCE('2','LAST_VERSION',#296,
.MADE.);
#301=PRODUCT_CATEGORY('part','');
#302=PRODUCT_RELATED_PRODUCT_CATEGORY('detail','',(#296));
#303=PRODUCT_CATEGORY_RELATIONSHIP('','',#301,#302);
#304=SECURITY_CLASSIFICATION_LEVEL('unclassified');
#305=SECURITY_CLASSIFICATION('','',#304);
#306=CC_DESIGN_SECURITY_CLASSIFICATION(#305,(#297));
#307=APPROVAL_STATUS('approved');
#308=APPROVAL(#307,'');
#309=CC_DESIGN_APPROVAL(#308,(#305,#297,#298));
#310=CALENDAR_DATE(112,18,7);
#311=COORDINATED_UNIVERSAL_TIME_OFFSET(7,0,.BEHIND.);
#312=LOCAL_TIME(14,51,3.2E1,#311);
#313=DATE_AND_TIME(#310,#312);
#314=APPROVAL_DATE_TIME(#313,#308);
#315=DATE_TIME_ROLE('creation_date');
#316=CC_DESIGN_DATE_AND_TIME_ASSIGNMENT(#313,#315,(#298));
#317=DATE_TIME_ROLE('classification_date');
#318=CC_DESIGN_DATE_AND_TIME_ASSIGNMENT(#313,#317,(#305));
#319=PERSON('UNSPECIFIED','UNSPECIFIED',$,$,$,$);
#320=ORGANIZATION('UNSPECIFIED','UNSPECIFIED','UNSPECIFIED');
#321=PERSON_AND_ORGANIZATION(#319,#320);
#322=APPROVAL_ROLE('approver');
#323=APPROVAL_PERSON_ORGANIZATION(#321,#308,#322);
#324=PERSON_AND_ORGANIZATION_ROLE('creator');
#325=CC_DESIGN_PERSON_AND_ORGANIZATION_ASSIGNMENT(#321,#324,(#297,#298));
#326=PERSON_AND_ORGANIZATION_ROLE('design_supplier');
#327=CC_DESIGN_PERSON_AND_ORGANIZATION_ASSIGNMENT(#321,#326,(#297));
#328=PERSON_AND_ORGANIZATION_ROLE('classification_officer');
#329=CC_DESIGN_PERSON_AND_ORGANIZATION_ASSIGNMENT(#321,#328,(#305));
#330=PERSON_AND_ORGANIZATION_ROLE('design_owner');
#331=CC_DESIGN_PERSON_AND_ORGANIZATION_ASSIGNMENT(#321,#330,(#296));
#134=EDGE_CURVE('',#115,#116,#4,.T.);
#136=EDGE_CURVE('',#116,#99,#8,.T.);
#138=EDGE_CURVE('',#99,#100,#12,.T.);
#140=EDGE_CURVE('',#100,#115,#16,.T.);
#144=ADVANCED_FACE('',(#143),#133,.F.);
#150=EDGE_CURVE('',#119,#120,#20,.T.);
#152=EDGE_CURVE('',#119,#103,#24,.T.);
#154=EDGE_CURVE('',#103,#104,#28,.T.);
#156=EDGE_CURVE('',#104,#120,#32,.T.);
#160=ADVANCED_FACE('',(#159),#149,.F.);
#167=EDGE_CURVE('',#115,#122,#40,.T.);
#169=EDGE_CURVE('',#126,#122,#36,.T.);
#171=EDGE_CURVE('',#116,#126,#60,.T.);
#175=ADVANCED_FACE('',(#174),#165,.F.);
#183=EDGE_CURVE('',#100,#108,#44,.T.);
#185=EDGE_CURVE('',#108,#110,#96,.T.);
#187=EDGE_CURVE('',#103,#110,#80,.T.);
#190=EDGE_CURVE('',#119,#124,#48,.T.);
#192=EDGE_CURVE('',#124,#122,#52,.T.);
#196=ADVANCED_FACE('',(#195),#180,.T.);
#203=EDGE_CURVE('',#99,#107,#56,.T.);
#205=EDGE_CURVE('',#107,#108,#84,.T.);
#210=ADVANCED_FACE('',(#209),#201,.T.);
#217=EDGE_CURVE('',#128,#126,#64,.T.);
#219=EDGE_CURVE('',#120,#128,#68,.T.);
#222=EDGE_CURVE('',#104,#112,#72,.T.);
#224=EDGE_CURVE('',#112,#107,#88,.T.);
#230=ADVANCED_FACE('',(#229),#215,.T.);
#237=EDGE_CURVE('',#128,#124,#76,.T.);
#243=ADVANCED_FACE('',(#242),#235,.F.);
#255=ADVANCED_FACE('',(#254),#248,.F.);
#263=EDGE_CURVE('',#110,#112,#92,.T.);
#268=ADVANCED_FACE('',(#267),#260,.T.);
#280=ADVANCED_FACE('',(#279),#273,.T.);
#283=(LENGTH_UNIT()NAMED_UNIT(*)SI_UNIT(.MILLI.,.METRE.));
#285=(NAMED_UNIT(*)PLANE_ANGLE_UNIT()SI_UNIT($,.RADIAN.));
#288=(NAMED_UNIT(*)SI_UNIT($,.STERADIAN.)SOLID_ANGLE_UNIT());
#290=(GEOMETRIC_REPRESENTATION_CONTEXT(3)GLOBAL_UNCERTAINTY_ASSIGNED_CONTEXT((
#289))GLOBAL_UNIT_ASSIGNED_CONTEXT((#283,#287,#288))REPRESENTATION_CONTEXT
('ID1','3'));
#291=ADVANCED_BREP_SHAPE_REPRESENTATION('',(#282),#290);
#298=PRODUCT_DEFINITION('design','',#297,#294);
#299=PRODUCT_DEFINITION_SHAPE('','SHAPE FOR CD1206-S01575.',#298);
#300=SHAPE_DEFINITION_REPRESENTATION(#299,#291);
ENDSEC;
END-ISO-10303-21;
