ISO-10303-21;
HEADER;
FILE_DESCRIPTION((''),'2;1');
FILE_NAME('CD1607-BXX','2012-07-18T',('ryans'),('Bourns, Inc.'),
'PRO/ENGINEER BY PARAMETRIC TECHNOLOGY CORPORATION, 2010100',
'PRO/ENGINEER BY PARAMETRIC TECHNOLOGY CORPORATION, 2010100','');
FILE_SCHEMA(('CONFIG_CONTROL_DESIGN'));
ENDSEC;
DATA;
#1=DIRECTION('',(0.E0,2.495187977319E-1,9.683699549131E-1));
#2=VECTOR('',#1,1.402699929550E0);
#3=CARTESIAN_POINT('',(-8.E-1,1.3E0,-9.204494186368E-1));
#4=LINE('',#3,#2);
#5=DIRECTION('',(0.E0,1.E0,0.E0));
#6=VECTOR('',#5,3.E-1);
#7=CARTESIAN_POINT('',(-8.E-1,1.65E0,4.378830488984E-1));
#8=LINE('',#7,#6);
#9=DIRECTION('',(0.E0,0.E0,1.E0));
#10=VECTOR('',#9,1.416675324648E-1);
#11=CARTESIAN_POINT('',(-8.E-1,1.95E0,4.378830488984E-1));
#12=LINE('',#11,#10);
#13=DIRECTION('',(0.E0,-1.E0,0.E0));
#14=VECTOR('',#13,9.E-1);
#15=CARTESIAN_POINT('',(-8.E-1,1.95E0,5.795505813632E-1));
#16=LINE('',#15,#14);
#17=DIRECTION('',(0.E0,0.E0,-1.E0));
#18=VECTOR('',#17,5.E-2);
#19=CARTESIAN_POINT('',(-8.E-1,1.05E0,5.795505813632E-1));
#20=LINE('',#19,#18);
#21=DIRECTION('',(0.E0,-1.E0,0.E0));
#22=VECTOR('',#21,2.1E0);
#23=CARTESIAN_POINT('',(-8.E-1,1.05E0,5.295505813632E-1));
#24=LINE('',#23,#22);
#25=DIRECTION('',(0.E0,0.E0,1.E0));
#26=VECTOR('',#25,5.E-2);
#27=CARTESIAN_POINT('',(-8.E-1,-1.05E0,5.295505813632E-1));
#28=LINE('',#27,#26);
#29=DIRECTION('',(0.E0,-1.E0,0.E0));
#30=VECTOR('',#29,9.E-1);
#31=CARTESIAN_POINT('',(-8.E-1,-1.05E0,5.795505813632E-1));
#32=LINE('',#31,#30);
#33=DIRECTION('',(0.E0,0.E0,-1.E0));
#34=VECTOR('',#33,1.416675324648E-1);
#35=CARTESIAN_POINT('',(-8.E-1,-1.95E0,5.795505813632E-1));
#36=LINE('',#35,#34);
#37=DIRECTION('',(0.E0,1.E0,0.E0));
#38=VECTOR('',#37,3.E-1);
#39=CARTESIAN_POINT('',(-8.E-1,-1.95E0,4.378830488984E-1));
#40=LINE('',#39,#38);
#41=DIRECTION('',(0.E0,2.495187977319E-1,-9.683699549131E-1));
#42=VECTOR('',#41,1.402699929550E0);
#43=CARTESIAN_POINT('',(-8.E-1,-1.65E0,4.378830488984E-1));
#44=LINE('',#43,#42);
#45=DIRECTION('',(0.E0,1.E0,0.E0));
#46=VECTOR('',#45,2.6E0);
#47=CARTESIAN_POINT('',(-8.E-1,-1.3E0,-9.204494186368E-1));
#48=LINE('',#47,#46);
#49=DIRECTION('',(1.E0,0.E0,0.E0));
#50=VECTOR('',#49,1.6E0);
#51=CARTESIAN_POINT('',(-8.E-1,1.3E0,-9.204494186368E-1));
#52=LINE('',#51,#50);
#53=DIRECTION('',(1.E0,0.E0,0.E0));
#54=VECTOR('',#53,1.6E0);
#55=CARTESIAN_POINT('',(-8.E-1,-1.3E0,-9.204494186368E-1));
#56=LINE('',#55,#54);
#57=DIRECTION('',(1.E0,0.E0,0.E0));
#58=VECTOR('',#57,1.6E0);
#59=CARTESIAN_POINT('',(-8.E-1,-1.65E0,4.378830488984E-1));
#60=LINE('',#59,#58);
#61=DIRECTION('',(1.E0,0.E0,0.E0));
#62=VECTOR('',#61,1.6E0);
#63=CARTESIAN_POINT('',(-8.E-1,-1.95E0,4.378830488984E-1));
#64=LINE('',#63,#62);
#65=DIRECTION('',(1.E0,0.E0,0.E0));
#66=VECTOR('',#65,1.6E0);
#67=CARTESIAN_POINT('',(-8.E-1,-1.95E0,5.795505813632E-1));
#68=LINE('',#67,#66);
#69=DIRECTION('',(1.E0,0.E0,0.E0));
#70=VECTOR('',#69,1.6E0);
#71=CARTESIAN_POINT('',(-8.E-1,-1.05E0,5.795505813632E-1));
#72=LINE('',#71,#70);
#73=DIRECTION('',(1.E0,0.E0,0.E0));
#74=VECTOR('',#73,1.6E0);
#75=CARTESIAN_POINT('',(-8.E-1,-1.05E0,5.295505813632E-1));
#76=LINE('',#75,#74);
#77=DIRECTION('',(1.E0,0.E0,0.E0));
#78=VECTOR('',#77,1.6E0);
#79=CARTESIAN_POINT('',(-8.E-1,1.05E0,5.295505813632E-1));
#80=LINE('',#79,#78);
#81=DIRECTION('',(1.E0,0.E0,0.E0));
#82=VECTOR('',#81,1.6E0);
#83=CARTESIAN_POINT('',(-8.E-1,1.05E0,5.795505813632E-1));
#84=LINE('',#83,#82);
#85=DIRECTION('',(1.E0,0.E0,0.E0));
#86=VECTOR('',#85,1.6E0);
#87=CARTESIAN_POINT('',(-8.E-1,1.95E0,5.795505813632E-1));
#88=LINE('',#87,#86);
#89=DIRECTION('',(1.E0,0.E0,0.E0));
#90=VECTOR('',#89,1.6E0);
#91=CARTESIAN_POINT('',(-8.E-1,1.95E0,4.378830488984E-1));
#92=LINE('',#91,#90);
#93=DIRECTION('',(1.E0,0.E0,0.E0));
#94=VECTOR('',#93,1.6E0);
#95=CARTESIAN_POINT('',(-8.E-1,1.65E0,4.378830488984E-1));
#96=LINE('',#95,#94);
#97=DIRECTION('',(0.E0,2.495187977319E-1,9.683699549131E-1));
#98=VECTOR('',#97,1.402699929550E0);
#99=CARTESIAN_POINT('',(8.E-1,1.3E0,-9.204494186368E-1));
#100=LINE('',#99,#98);
#101=DIRECTION('',(0.E0,1.E0,0.E0));
#102=VECTOR('',#101,2.6E0);
#103=CARTESIAN_POINT('',(8.E-1,-1.3E0,-9.204494186368E-1));
#104=LINE('',#103,#102);
#105=DIRECTION('',(0.E0,2.495187977319E-1,-9.683699549131E-1));
#106=VECTOR('',#105,1.402699929550E0);
#107=CARTESIAN_POINT('',(8.E-1,-1.65E0,4.378830488984E-1));
#108=LINE('',#107,#106);
#109=DIRECTION('',(0.E0,1.E0,0.E0));
#110=VECTOR('',#109,3.E-1);
#111=CARTESIAN_POINT('',(8.E-1,-1.95E0,4.378830488984E-1));
#112=LINE('',#111,#110);
#113=DIRECTION('',(0.E0,0.E0,-1.E0));
#114=VECTOR('',#113,1.416675324648E-1);
#115=CARTESIAN_POINT('',(8.E-1,-1.95E0,5.795505813632E-1));
#116=LINE('',#115,#114);
#117=DIRECTION('',(0.E0,-1.E0,0.E0));
#118=VECTOR('',#117,9.E-1);
#119=CARTESIAN_POINT('',(8.E-1,-1.05E0,5.795505813632E-1));
#120=LINE('',#119,#118);
#121=DIRECTION('',(0.E0,0.E0,1.E0));
#122=VECTOR('',#121,5.E-2);
#123=CARTESIAN_POINT('',(8.E-1,-1.05E0,5.295505813632E-1));
#124=LINE('',#123,#122);
#125=DIRECTION('',(0.E0,-1.E0,0.E0));
#126=VECTOR('',#125,2.1E0);
#127=CARTESIAN_POINT('',(8.E-1,1.05E0,5.295505813632E-1));
#128=LINE('',#127,#126);
#129=DIRECTION('',(0.E0,0.E0,-1.E0));
#130=VECTOR('',#129,5.E-2);
#131=CARTESIAN_POINT('',(8.E-1,1.05E0,5.795505813632E-1));
#132=LINE('',#131,#130);
#133=DIRECTION('',(0.E0,-1.E0,0.E0));
#134=VECTOR('',#133,9.E-1);
#135=CARTESIAN_POINT('',(8.E-1,1.95E0,5.795505813632E-1));
#136=LINE('',#135,#134);
#137=DIRECTION('',(0.E0,0.E0,1.E0));
#138=VECTOR('',#137,1.416675324648E-1);
#139=CARTESIAN_POINT('',(8.E-1,1.95E0,4.378830488984E-1));
#140=LINE('',#139,#138);
#141=DIRECTION('',(0.E0,1.E0,0.E0));
#142=VECTOR('',#141,3.E-1);
#143=CARTESIAN_POINT('',(8.E-1,1.65E0,4.378830488984E-1));
#144=LINE('',#143,#142);
#145=CARTESIAN_POINT('',(-8.E-1,1.3E0,-9.204494186368E-1));
#146=CARTESIAN_POINT('',(-8.E-1,1.65E0,4.378830488984E-1));
#147=VERTEX_POINT('',#145);
#148=VERTEX_POINT('',#146);
#149=CARTESIAN_POINT('',(-8.E-1,1.95E0,4.378830488984E-1));
#150=VERTEX_POINT('',#149);
#151=CARTESIAN_POINT('',(-8.E-1,1.95E0,5.795505813632E-1));
#152=VERTEX_POINT('',#151);
#153=CARTESIAN_POINT('',(-8.E-1,-1.05E0,5.795505813632E-1));
#154=CARTESIAN_POINT('',(-8.E-1,-1.95E0,5.795505813632E-1));
#155=VERTEX_POINT('',#153);
#156=VERTEX_POINT('',#154);
#157=CARTESIAN_POINT('',(-8.E-1,-1.95E0,4.378830488984E-1));
#158=VERTEX_POINT('',#157);
#159=CARTESIAN_POINT('',(-8.E-1,-1.65E0,4.378830488984E-1));
#160=VERTEX_POINT('',#159);
#161=CARTESIAN_POINT('',(-8.E-1,-1.3E0,-9.204494186368E-1));
#162=VERTEX_POINT('',#161);
#163=CARTESIAN_POINT('',(8.E-1,1.3E0,-9.204494186368E-1));
#164=CARTESIAN_POINT('',(8.E-1,1.65E0,4.378830488984E-1));
#165=VERTEX_POINT('',#163);
#166=VERTEX_POINT('',#164);
#167=CARTESIAN_POINT('',(8.E-1,1.95E0,4.378830488984E-1));
#168=VERTEX_POINT('',#167);
#169=CARTESIAN_POINT('',(8.E-1,1.95E0,5.795505813632E-1));
#170=VERTEX_POINT('',#169);
#171=CARTESIAN_POINT('',(8.E-1,-1.05E0,5.795505813632E-1));
#172=CARTESIAN_POINT('',(8.E-1,-1.95E0,5.795505813632E-1));
#173=VERTEX_POINT('',#171);
#174=VERTEX_POINT('',#172);
#175=CARTESIAN_POINT('',(8.E-1,-1.95E0,4.378830488984E-1));
#176=VERTEX_POINT('',#175);
#177=CARTESIAN_POINT('',(8.E-1,-1.65E0,4.378830488984E-1));
#178=VERTEX_POINT('',#177);
#179=CARTESIAN_POINT('',(8.E-1,-1.3E0,-9.204494186368E-1));
#180=VERTEX_POINT('',#179);
#181=CARTESIAN_POINT('',(-8.E-1,1.05E0,5.795505813632E-1));
#182=VERTEX_POINT('',#181);
#183=CARTESIAN_POINT('',(-8.E-1,1.05E0,5.295505813632E-1));
#184=VERTEX_POINT('',#183);
#185=CARTESIAN_POINT('',(-8.E-1,-1.05E0,5.295505813632E-1));
#186=VERTEX_POINT('',#185);
#187=CARTESIAN_POINT('',(8.E-1,1.05E0,5.795505813632E-1));
#188=VERTEX_POINT('',#187);
#189=CARTESIAN_POINT('',(8.E-1,1.05E0,5.295505813632E-1));
#190=VERTEX_POINT('',#189);
#191=CARTESIAN_POINT('',(8.E-1,-1.05E0,5.295505813632E-1));
#192=VERTEX_POINT('',#191);
#193=CARTESIAN_POINT('',(-8.E-1,0.E0,0.E0));
#194=DIRECTION('',(1.E0,0.E0,0.E0));
#195=DIRECTION('',(0.E0,-1.E0,0.E0));
#196=AXIS2_PLACEMENT_3D('',#193,#194,#195);
#197=PLANE('',#196);
#199=ORIENTED_EDGE('',*,*,#198,.T.);
#201=ORIENTED_EDGE('',*,*,#200,.T.);
#203=ORIENTED_EDGE('',*,*,#202,.T.);
#205=ORIENTED_EDGE('',*,*,#204,.T.);
#207=ORIENTED_EDGE('',*,*,#206,.T.);
#209=ORIENTED_EDGE('',*,*,#208,.T.);
#211=ORIENTED_EDGE('',*,*,#210,.T.);
#213=ORIENTED_EDGE('',*,*,#212,.T.);
#215=ORIENTED_EDGE('',*,*,#214,.T.);
#217=ORIENTED_EDGE('',*,*,#216,.T.);
#219=ORIENTED_EDGE('',*,*,#218,.T.);
#221=ORIENTED_EDGE('',*,*,#220,.T.);
#222=EDGE_LOOP('',(#199,#201,#203,#205,#207,#209,#211,#213,#215,#217,#219,
#221));
#223=FACE_OUTER_BOUND('',#222,.F.);
#225=CARTESIAN_POINT('',(-8.E-1,1.3E0,-9.204494186368E-1));
#226=DIRECTION('',(0.E0,9.683699549131E-1,-2.495187977319E-1));
#227=DIRECTION('',(0.E0,2.495187977319E-1,9.683699549131E-1));
#228=AXIS2_PLACEMENT_3D('',#225,#226,#227);
#229=PLANE('',#228);
#230=ORIENTED_EDGE('',*,*,#198,.F.);
#232=ORIENTED_EDGE('',*,*,#231,.T.);
#234=ORIENTED_EDGE('',*,*,#233,.T.);
#236=ORIENTED_EDGE('',*,*,#235,.F.);
#237=EDGE_LOOP('',(#230,#232,#234,#236));
#238=FACE_OUTER_BOUND('',#237,.F.);
#240=CARTESIAN_POINT('',(-8.E-1,-1.3E0,-9.204494186368E-1));
#241=DIRECTION('',(0.E0,0.E0,-1.E0));
#242=DIRECTION('',(0.E0,1.E0,0.E0));
#243=AXIS2_PLACEMENT_3D('',#240,#241,#242);
#244=PLANE('',#243);
#245=ORIENTED_EDGE('',*,*,#220,.F.);
#247=ORIENTED_EDGE('',*,*,#246,.T.);
#249=ORIENTED_EDGE('',*,*,#248,.T.);
#250=ORIENTED_EDGE('',*,*,#231,.F.);
#251=EDGE_LOOP('',(#245,#247,#249,#250));
#252=FACE_OUTER_BOUND('',#251,.F.);
#254=CARTESIAN_POINT('',(-8.E-1,-1.65E0,4.378830488984E-1));
#255=DIRECTION('',(0.E0,-9.683699549131E-1,-2.495187977319E-1));
#256=DIRECTION('',(0.E0,2.495187977319E-1,-9.683699549131E-1));
#257=AXIS2_PLACEMENT_3D('',#254,#255,#256);
#258=PLANE('',#257);
#259=ORIENTED_EDGE('',*,*,#218,.F.);
#261=ORIENTED_EDGE('',*,*,#260,.T.);
#263=ORIENTED_EDGE('',*,*,#262,.T.);
#264=ORIENTED_EDGE('',*,*,#246,.F.);
#265=EDGE_LOOP('',(#259,#261,#263,#264));
#266=FACE_OUTER_BOUND('',#265,.F.);
#268=CARTESIAN_POINT('',(-8.E-1,-1.95E0,4.378830488984E-1));
#269=DIRECTION('',(0.E0,0.E0,-1.E0));
#270=DIRECTION('',(0.E0,1.E0,0.E0));
#271=AXIS2_PLACEMENT_3D('',#268,#269,#270);
#272=PLANE('',#271);
#273=ORIENTED_EDGE('',*,*,#216,.F.);
#275=ORIENTED_EDGE('',*,*,#274,.T.);
#277=ORIENTED_EDGE('',*,*,#276,.T.);
#278=ORIENTED_EDGE('',*,*,#260,.F.);
#279=EDGE_LOOP('',(#273,#275,#277,#278));
#280=FACE_OUTER_BOUND('',#279,.F.);
#282=CARTESIAN_POINT('',(-8.E-1,-1.95E0,5.795505813632E-1));
#283=DIRECTION('',(0.E0,-1.E0,0.E0));
#284=DIRECTION('',(0.E0,0.E0,-1.E0));
#285=AXIS2_PLACEMENT_3D('',#282,#283,#284);
#286=PLANE('',#285);
#287=ORIENTED_EDGE('',*,*,#214,.F.);
#289=ORIENTED_EDGE('',*,*,#288,.T.);
#291=ORIENTED_EDGE('',*,*,#290,.T.);
#292=ORIENTED_EDGE('',*,*,#274,.F.);
#293=EDGE_LOOP('',(#287,#289,#291,#292));
#294=FACE_OUTER_BOUND('',#293,.F.);
#296=CARTESIAN_POINT('',(-8.E-1,-1.05E0,5.795505813632E-1));
#297=DIRECTION('',(0.E0,0.E0,1.E0));
#298=DIRECTION('',(0.E0,-1.E0,0.E0));
#299=AXIS2_PLACEMENT_3D('',#296,#297,#298);
#300=PLANE('',#299);
#301=ORIENTED_EDGE('',*,*,#212,.F.);
#303=ORIENTED_EDGE('',*,*,#302,.T.);
#305=ORIENTED_EDGE('',*,*,#304,.T.);
#306=ORIENTED_EDGE('',*,*,#288,.F.);
#307=EDGE_LOOP('',(#301,#303,#305,#306));
#308=FACE_OUTER_BOUND('',#307,.F.);
#310=CARTESIAN_POINT('',(-8.E-1,-1.05E0,5.295505813632E-1));
#311=DIRECTION('',(0.E0,1.E0,0.E0));
#312=DIRECTION('',(0.E0,0.E0,1.E0));
#313=AXIS2_PLACEMENT_3D('',#310,#311,#312);
#314=PLANE('',#313);
#315=ORIENTED_EDGE('',*,*,#210,.F.);
#317=ORIENTED_EDGE('',*,*,#316,.T.);
#319=ORIENTED_EDGE('',*,*,#318,.T.);
#320=ORIENTED_EDGE('',*,*,#302,.F.);
#321=EDGE_LOOP('',(#315,#317,#319,#320));
#322=FACE_OUTER_BOUND('',#321,.F.);
#324=CARTESIAN_POINT('',(-8.E-1,1.05E0,5.295505813632E-1));
#325=DIRECTION('',(0.E0,0.E0,1.E0));
#326=DIRECTION('',(0.E0,-1.E0,0.E0));
#327=AXIS2_PLACEMENT_3D('',#324,#325,#326);
#328=PLANE('',#327);
#329=ORIENTED_EDGE('',*,*,#208,.F.);
#331=ORIENTED_EDGE('',*,*,#330,.T.);
#333=ORIENTED_EDGE('',*,*,#332,.T.);
#334=ORIENTED_EDGE('',*,*,#316,.F.);
#335=EDGE_LOOP('',(#329,#331,#333,#334));
#336=FACE_OUTER_BOUND('',#335,.F.);
#338=CARTESIAN_POINT('',(-8.E-1,1.05E0,5.795505813632E-1));
#339=DIRECTION('',(0.E0,-1.E0,0.E0));
#340=DIRECTION('',(0.E0,0.E0,-1.E0));
#341=AXIS2_PLACEMENT_3D('',#338,#339,#340);
#342=PLANE('',#341);
#343=ORIENTED_EDGE('',*,*,#206,.F.);
#345=ORIENTED_EDGE('',*,*,#344,.T.);
#347=ORIENTED_EDGE('',*,*,#346,.T.);
#348=ORIENTED_EDGE('',*,*,#330,.F.);
#349=EDGE_LOOP('',(#343,#345,#347,#348));
#350=FACE_OUTER_BOUND('',#349,.F.);
#352=CARTESIAN_POINT('',(-8.E-1,1.95E0,5.795505813632E-1));
#353=DIRECTION('',(0.E0,0.E0,1.E0));
#354=DIRECTION('',(0.E0,-1.E0,0.E0));
#355=AXIS2_PLACEMENT_3D('',#352,#353,#354);
#356=PLANE('',#355);
#357=ORIENTED_EDGE('',*,*,#204,.F.);
#359=ORIENTED_EDGE('',*,*,#358,.T.);
#361=ORIENTED_EDGE('',*,*,#360,.T.);
#362=ORIENTED_EDGE('',*,*,#344,.F.);
#363=EDGE_LOOP('',(#357,#359,#361,#362));
#364=FACE_OUTER_BOUND('',#363,.F.);
#366=CARTESIAN_POINT('',(-8.E-1,1.95E0,4.378830488984E-1));
#367=DIRECTION('',(0.E0,1.E0,0.E0));
#368=DIRECTION('',(0.E0,0.E0,1.E0));
#369=AXIS2_PLACEMENT_3D('',#366,#367,#368);
#370=PLANE('',#369);
#371=ORIENTED_EDGE('',*,*,#202,.F.);
#373=ORIENTED_EDGE('',*,*,#372,.T.);
#375=ORIENTED_EDGE('',*,*,#374,.T.);
#376=ORIENTED_EDGE('',*,*,#358,.F.);
#377=EDGE_LOOP('',(#371,#373,#375,#376));
#378=FACE_OUTER_BOUND('',#377,.F.);
#380=CARTESIAN_POINT('',(-8.E-1,1.65E0,4.378830488984E-1));
#381=DIRECTION('',(0.E0,0.E0,-1.E0));
#382=DIRECTION('',(0.E0,1.E0,0.E0));
#383=AXIS2_PLACEMENT_3D('',#380,#381,#382);
#384=PLANE('',#383);
#385=ORIENTED_EDGE('',*,*,#200,.F.);
#386=ORIENTED_EDGE('',*,*,#235,.T.);
#388=ORIENTED_EDGE('',*,*,#387,.T.);
#389=ORIENTED_EDGE('',*,*,#372,.F.);
#390=EDGE_LOOP('',(#385,#386,#388,#389));
#391=FACE_OUTER_BOUND('',#390,.F.);
#393=CARTESIAN_POINT('',(8.E-1,0.E0,0.E0));
#394=DIRECTION('',(1.E0,0.E0,0.E0));
#395=DIRECTION('',(0.E0,-1.E0,0.E0));
#396=AXIS2_PLACEMENT_3D('',#393,#394,#395);
#397=PLANE('',#396);
#398=ORIENTED_EDGE('',*,*,#233,.F.);
#399=ORIENTED_EDGE('',*,*,#248,.F.);
#400=ORIENTED_EDGE('',*,*,#262,.F.);
#401=ORIENTED_EDGE('',*,*,#276,.F.);
#402=ORIENTED_EDGE('',*,*,#290,.F.);
#403=ORIENTED_EDGE('',*,*,#304,.F.);
#404=ORIENTED_EDGE('',*,*,#318,.F.);
#405=ORIENTED_EDGE('',*,*,#332,.F.);
#406=ORIENTED_EDGE('',*,*,#346,.F.);
#407=ORIENTED_EDGE('',*,*,#360,.F.);
#408=ORIENTED_EDGE('',*,*,#374,.F.);
#409=ORIENTED_EDGE('',*,*,#387,.F.);
#410=EDGE_LOOP('',(#398,#399,#400,#401,#402,#403,#404,#405,#406,#407,#408,
#409));
#411=FACE_OUTER_BOUND('',#410,.F.);
#413=CLOSED_SHELL('',(#224,#239,#253,#267,#281,#295,#309,#323,#337,#351,#365,
#379,#392,#412));
#414=MANIFOLD_SOLID_BREP('',#413);
#416=DIMENSIONAL_EXPONENTS(0.E0,0.E0,0.E0,0.E0,0.E0,0.E0,0.E0);
#418=PLANE_ANGLE_MEASURE_WITH_UNIT(PLANE_ANGLE_MEASURE(1.745329251994E-2),#417);
#419=(CONVERSION_BASED_UNIT('DEGREE',#418)NAMED_UNIT(*)PLANE_ANGLE_UNIT());
#421=UNCERTAINTY_MEASURE_WITH_UNIT(LENGTH_MEASURE(1.864246870575E-4),#415,
'closure',
'Maximum model space distance between geometric entities at asserted connectivities');
#424=APPLICATION_CONTEXT(
'CONFIGURATION CONTROLLED 3D DESIGNS OF MECHANICAL PARTS AND ASSEMBLIES');
#425=APPLICATION_PROTOCOL_DEFINITION('international standard',
'config_control_design',1994,#424);
#426=DESIGN_CONTEXT('',#424,'design');
#427=MECHANICAL_CONTEXT('',#424,'mechanical');
#428=PRODUCT('CD1607-BXX','CD1607-BXX','NOT SPECIFIED',(#427));
#429=PRODUCT_DEFINITION_FORMATION_WITH_SPECIFIED_SOURCE('1','LAST_VERSION',#428,
.MADE.);
#433=PRODUCT_CATEGORY('part','');
#434=PRODUCT_RELATED_PRODUCT_CATEGORY('detail','',(#428));
#435=PRODUCT_CATEGORY_RELATIONSHIP('','',#433,#434);
#436=SECURITY_CLASSIFICATION_LEVEL('unclassified');
#437=SECURITY_CLASSIFICATION('','',#436);
#438=CC_DESIGN_SECURITY_CLASSIFICATION(#437,(#429));
#439=APPROVAL_STATUS('approved');
#440=APPROVAL(#439,'');
#441=CC_DESIGN_APPROVAL(#440,(#437,#429,#430));
#442=CALENDAR_DATE(112,18,7);
#443=COORDINATED_UNIVERSAL_TIME_OFFSET(7,0,.BEHIND.);
#444=LOCAL_TIME(11,25,2.E1,#443);
#445=DATE_AND_TIME(#442,#444);
#446=APPROVAL_DATE_TIME(#445,#440);
#447=DATE_TIME_ROLE('creation_date');
#448=CC_DESIGN_DATE_AND_TIME_ASSIGNMENT(#445,#447,(#430));
#449=DATE_TIME_ROLE('classification_date');
#450=CC_DESIGN_DATE_AND_TIME_ASSIGNMENT(#445,#449,(#437));
#451=PERSON('UNSPECIFIED','UNSPECIFIED',$,$,$,$);
#452=ORGANIZATION('UNSPECIFIED','UNSPECIFIED','UNSPECIFIED');
#453=PERSON_AND_ORGANIZATION(#451,#452);
#454=APPROVAL_ROLE('approver');
#455=APPROVAL_PERSON_ORGANIZATION(#453,#440,#454);
#456=PERSON_AND_ORGANIZATION_ROLE('creator');
#457=CC_DESIGN_PERSON_AND_ORGANIZATION_ASSIGNMENT(#453,#456,(#429,#430));
#458=PERSON_AND_ORGANIZATION_ROLE('design_supplier');
#459=CC_DESIGN_PERSON_AND_ORGANIZATION_ASSIGNMENT(#453,#458,(#429));
#460=PERSON_AND_ORGANIZATION_ROLE('classification_officer');
#461=CC_DESIGN_PERSON_AND_ORGANIZATION_ASSIGNMENT(#453,#460,(#437));
#462=PERSON_AND_ORGANIZATION_ROLE('design_owner');
#463=CC_DESIGN_PERSON_AND_ORGANIZATION_ASSIGNMENT(#453,#462,(#428));
#198=EDGE_CURVE('',#147,#148,#4,.T.);
#200=EDGE_CURVE('',#148,#150,#8,.T.);
#202=EDGE_CURVE('',#150,#152,#12,.T.);
#204=EDGE_CURVE('',#152,#182,#16,.T.);
#206=EDGE_CURVE('',#182,#184,#20,.T.);
#208=EDGE_CURVE('',#184,#186,#24,.T.);
#210=EDGE_CURVE('',#186,#155,#28,.T.);
#212=EDGE_CURVE('',#155,#156,#32,.T.);
#214=EDGE_CURVE('',#156,#158,#36,.T.);
#216=EDGE_CURVE('',#158,#160,#40,.T.);
#218=EDGE_CURVE('',#160,#162,#44,.T.);
#220=EDGE_CURVE('',#162,#147,#48,.T.);
#224=ADVANCED_FACE('',(#223),#197,.F.);
#231=EDGE_CURVE('',#147,#165,#52,.T.);
#233=EDGE_CURVE('',#165,#166,#100,.T.);
#235=EDGE_CURVE('',#148,#166,#96,.T.);
#239=ADVANCED_FACE('',(#238),#229,.T.);
#246=EDGE_CURVE('',#162,#180,#56,.T.);
#248=EDGE_CURVE('',#180,#165,#104,.T.);
#253=ADVANCED_FACE('',(#252),#244,.T.);
#260=EDGE_CURVE('',#160,#178,#60,.T.);
#262=EDGE_CURVE('',#178,#180,#108,.T.);
#267=ADVANCED_FACE('',(#266),#258,.T.);
#274=EDGE_CURVE('',#158,#176,#64,.T.);
#276=EDGE_CURVE('',#176,#178,#112,.T.);
#281=ADVANCED_FACE('',(#280),#272,.T.);
#288=EDGE_CURVE('',#156,#174,#68,.T.);
#290=EDGE_CURVE('',#174,#176,#116,.T.);
#295=ADVANCED_FACE('',(#294),#286,.T.);
#302=EDGE_CURVE('',#155,#173,#72,.T.);
#304=EDGE_CURVE('',#173,#174,#120,.T.);
#309=ADVANCED_FACE('',(#308),#300,.T.);
#316=EDGE_CURVE('',#186,#192,#76,.T.);
#318=EDGE_CURVE('',#192,#173,#124,.T.);
#323=ADVANCED_FACE('',(#322),#314,.T.);
#330=EDGE_CURVE('',#184,#190,#80,.T.);
#332=EDGE_CURVE('',#190,#192,#128,.T.);
#337=ADVANCED_FACE('',(#336),#328,.T.);
#344=EDGE_CURVE('',#182,#188,#84,.T.);
#346=EDGE_CURVE('',#188,#190,#132,.T.);
#351=ADVANCED_FACE('',(#350),#342,.T.);
#358=EDGE_CURVE('',#152,#170,#88,.T.);
#360=EDGE_CURVE('',#170,#188,#136,.T.);
#365=ADVANCED_FACE('',(#364),#356,.T.);
#372=EDGE_CURVE('',#150,#168,#92,.T.);
#374=EDGE_CURVE('',#168,#170,#140,.T.);
#379=ADVANCED_FACE('',(#378),#370,.T.);
#387=EDGE_CURVE('',#166,#168,#144,.T.);
#392=ADVANCED_FACE('',(#391),#384,.T.);
#412=ADVANCED_FACE('',(#411),#397,.T.);
#415=(LENGTH_UNIT()NAMED_UNIT(*)SI_UNIT(.MILLI.,.METRE.));
#417=(NAMED_UNIT(*)PLANE_ANGLE_UNIT()SI_UNIT($,.RADIAN.));
#420=(NAMED_UNIT(*)SI_UNIT($,.STERADIAN.)SOLID_ANGLE_UNIT());
#422=(GEOMETRIC_REPRESENTATION_CONTEXT(3)GLOBAL_UNCERTAINTY_ASSIGNED_CONTEXT((
#421))GLOBAL_UNIT_ASSIGNED_CONTEXT((#415,#419,#420))REPRESENTATION_CONTEXT
('ID1','3'));
#423=ADVANCED_BREP_SHAPE_REPRESENTATION('',(#414),#422);
#430=PRODUCT_DEFINITION('design','',#429,#426);
#431=PRODUCT_DEFINITION_SHAPE('','SHAPE FOR CD1607-BXX.',#430);
#432=SHAPE_DEFINITION_REPRESENTATION(#431,#423);
ENDSEC;
END-ISO-10303-21;
