ISO-10303-21;
HEADER;
FILE_DESCRIPTION((''),'2;1');
FILE_NAME('CHF11050CBF','2012-08-17T',('ryans'),('Bourns, Inc.'),
'PRO/ENGINEER BY PARAMETRIC TECHNOLOGY CORPORATION, 2010100',
'PRO/ENGINEER BY PARAMETRIC TECHNOLOGY CORPORATION, 2010100','');
FILE_SCHEMA(('CONFIG_CONTROL_DESIGN'));
ENDSEC;
DATA;
#1=DIRECTION('',(0.E0,0.E0,1.E0));
#2=VECTOR('',#1,1.27E1);
#3=CARTESIAN_POINT('',(-1.397E1,0.E0,-6.35E0));
#4=LINE('',#3,#2);
#5=DIRECTION('',(1.E0,0.E0,0.E0));
#6=VECTOR('',#5,2.794E1);
#7=CARTESIAN_POINT('',(-1.397E1,0.E0,6.35E0));
#8=LINE('',#7,#6);
#9=DIRECTION('',(0.E0,0.E0,-1.E0));
#10=VECTOR('',#9,1.27E1);
#11=CARTESIAN_POINT('',(1.397E1,0.E0,6.35E0));
#12=LINE('',#11,#10);
#13=DIRECTION('',(-1.E0,0.E0,0.E0));
#14=VECTOR('',#13,2.794E1);
#15=CARTESIAN_POINT('',(1.397E1,0.E0,-6.35E0));
#16=LINE('',#15,#14);
#17=CARTESIAN_POINT('',(1.016E1,0.E0,0.E0));
#18=DIRECTION('',(0.E0,1.E0,0.E0));
#19=DIRECTION('',(1.E0,0.E0,0.E0));
#20=AXIS2_PLACEMENT_3D('',#17,#18,#19);
#22=CARTESIAN_POINT('',(1.016E1,0.E0,0.E0));
#23=DIRECTION('',(0.E0,1.E0,0.E0));
#24=DIRECTION('',(-1.E0,0.E0,0.E0));
#25=AXIS2_PLACEMENT_3D('',#22,#23,#24);
#27=CARTESIAN_POINT('',(-1.016E1,0.E0,0.E0));
#28=DIRECTION('',(0.E0,1.E0,0.E0));
#29=DIRECTION('',(1.E0,0.E0,0.E0));
#30=AXIS2_PLACEMENT_3D('',#27,#28,#29);
#32=CARTESIAN_POINT('',(-1.016E1,0.E0,0.E0));
#33=DIRECTION('',(0.E0,1.E0,0.E0));
#34=DIRECTION('',(-1.E0,0.E0,0.E0));
#35=AXIS2_PLACEMENT_3D('',#32,#33,#34);
#37=DIRECTION('',(0.E0,1.E0,0.E0));
#38=VECTOR('',#37,3.17E0);
#39=CARTESIAN_POINT('',(-1.397E1,0.E0,-6.35E0));
#40=LINE('',#39,#38);
#41=DIRECTION('',(0.E0,1.E0,0.E0));
#42=VECTOR('',#41,2.83E0);
#43=CARTESIAN_POINT('',(6.35E0,3.17E0,-6.35E0));
#44=LINE('',#43,#42);
#45=DIRECTION('',(0.E0,1.E0,0.E0));
#46=VECTOR('',#45,3.17E0);
#47=CARTESIAN_POINT('',(1.397E1,0.E0,-6.35E0));
#48=LINE('',#47,#46);
#49=DIRECTION('',(0.E0,0.E0,-1.E0));
#50=VECTOR('',#49,1.27E1);
#51=CARTESIAN_POINT('',(-6.35E0,3.17E0,6.35E0));
#52=LINE('',#51,#50);
#53=DIRECTION('',(1.E0,0.E0,0.E0));
#54=VECTOR('',#53,7.62E0);
#55=CARTESIAN_POINT('',(-1.397E1,3.17E0,6.35E0));
#56=LINE('',#55,#54);
#57=DIRECTION('',(0.E0,0.E0,1.E0));
#58=VECTOR('',#57,1.27E1);
#59=CARTESIAN_POINT('',(-1.397E1,3.17E0,-6.35E0));
#60=LINE('',#59,#58);
#61=DIRECTION('',(-1.E0,0.E0,0.E0));
#62=VECTOR('',#61,7.62E0);
#63=CARTESIAN_POINT('',(-6.35E0,3.17E0,-6.35E0));
#64=LINE('',#63,#62);
#65=DIRECTION('',(0.E0,0.E0,-1.E0));
#66=VECTOR('',#65,1.27E1);
#67=CARTESIAN_POINT('',(6.35E0,3.17E0,6.35E0));
#68=LINE('',#67,#66);
#69=DIRECTION('',(-1.E0,0.E0,0.E0));
#70=VECTOR('',#69,7.62E0);
#71=CARTESIAN_POINT('',(1.397E1,3.17E0,-6.35E0));
#72=LINE('',#71,#70);
#73=DIRECTION('',(0.E0,0.E0,-1.E0));
#74=VECTOR('',#73,1.27E1);
#75=CARTESIAN_POINT('',(1.397E1,3.17E0,6.35E0));
#76=LINE('',#75,#74);
#77=DIRECTION('',(1.E0,0.E0,0.E0));
#78=VECTOR('',#77,7.62E0);
#79=CARTESIAN_POINT('',(6.35E0,3.17E0,6.35E0));
#80=LINE('',#79,#78);
#81=CARTESIAN_POINT('',(1.016E1,3.17E0,0.E0));
#82=DIRECTION('',(0.E0,1.E0,0.E0));
#83=DIRECTION('',(1.E0,0.E0,0.E0));
#84=AXIS2_PLACEMENT_3D('',#81,#82,#83);
#86=CARTESIAN_POINT('',(1.016E1,3.17E0,0.E0));
#87=DIRECTION('',(0.E0,1.E0,0.E0));
#88=DIRECTION('',(-1.E0,0.E0,0.E0));
#89=AXIS2_PLACEMENT_3D('',#86,#87,#88);
#91=CARTESIAN_POINT('',(-1.016E1,3.17E0,0.E0));
#92=DIRECTION('',(0.E0,1.E0,0.E0));
#93=DIRECTION('',(1.E0,0.E0,0.E0));
#94=AXIS2_PLACEMENT_3D('',#91,#92,#93);
#96=CARTESIAN_POINT('',(-1.016E1,3.17E0,0.E0));
#97=DIRECTION('',(0.E0,1.E0,0.E0));
#98=DIRECTION('',(-1.E0,0.E0,0.E0));
#99=AXIS2_PLACEMENT_3D('',#96,#97,#98);
#101=DIRECTION('',(0.E0,1.E0,0.E0));
#102=VECTOR('',#101,2.83E0);
#103=CARTESIAN_POINT('',(-6.35E0,3.17E0,-6.35E0));
#104=LINE('',#103,#102);
#105=DIRECTION('',(0.E0,0.E0,1.E0));
#106=VECTOR('',#105,1.27E1);
#107=CARTESIAN_POINT('',(-6.35E0,6.E0,-6.35E0));
#108=LINE('',#107,#106);
#109=DIRECTION('',(-1.E0,0.E0,0.E0));
#110=VECTOR('',#109,1.27E1);
#111=CARTESIAN_POINT('',(6.35E0,6.E0,-6.35E0));
#112=LINE('',#111,#110);
#113=DIRECTION('',(0.E0,0.E0,-1.E0));
#114=VECTOR('',#113,1.27E1);
#115=CARTESIAN_POINT('',(6.35E0,6.E0,6.35E0));
#116=LINE('',#115,#114);
#117=DIRECTION('',(1.E0,0.E0,0.E0));
#118=VECTOR('',#117,1.27E1);
#119=CARTESIAN_POINT('',(-6.35E0,6.E0,6.35E0));
#120=LINE('',#119,#118);
#121=DIRECTION('',(0.E0,1.E0,0.E0));
#122=VECTOR('',#121,2.83E0);
#123=CARTESIAN_POINT('',(6.35E0,3.17E0,6.35E0));
#124=LINE('',#123,#122);
#125=DIRECTION('',(0.E0,1.E0,0.E0));
#126=VECTOR('',#125,2.83E0);
#127=CARTESIAN_POINT('',(-6.35E0,3.17E0,6.35E0));
#128=LINE('',#127,#126);
#129=DIRECTION('',(0.E0,1.E0,0.E0));
#130=VECTOR('',#129,3.17E0);
#131=CARTESIAN_POINT('',(-1.397E1,0.E0,6.35E0));
#132=LINE('',#131,#130);
#133=DIRECTION('',(1.E0,0.E0,0.E0));
#134=VECTOR('',#133,3.E0);
#135=CARTESIAN_POINT('',(-1.5E0,4.2E0,6.35E0));
#136=LINE('',#135,#134);
#137=DIRECTION('',(0.E0,1.E0,0.E0));
#138=VECTOR('',#137,1.E-1);
#139=CARTESIAN_POINT('',(-1.5E0,4.1E0,6.35E0));
#140=LINE('',#139,#138);
#141=DIRECTION('',(1.E0,0.E0,0.E0));
#142=VECTOR('',#141,3.E0);
#143=CARTESIAN_POINT('',(-1.5E0,4.1E0,6.35E0));
#144=LINE('',#143,#142);
#145=DIRECTION('',(0.E0,1.E0,0.E0));
#146=VECTOR('',#145,1.E-1);
#147=CARTESIAN_POINT('',(1.5E0,4.1E0,6.35E0));
#148=LINE('',#147,#146);
#149=DIRECTION('',(0.E0,1.E0,0.E0));
#150=VECTOR('',#149,3.17E0);
#151=CARTESIAN_POINT('',(1.397E1,0.E0,6.35E0));
#152=LINE('',#151,#150);
#153=DIRECTION('',(0.E0,0.E0,-1.E0));
#154=VECTOR('',#153,6.5E0);
#155=CARTESIAN_POINT('',(1.5E0,4.2E0,1.285E1));
#156=LINE('',#155,#154);
#157=DIRECTION('',(1.E0,0.E0,0.E0));
#158=VECTOR('',#157,3.E0);
#159=CARTESIAN_POINT('',(-1.5E0,4.2E0,1.285E1));
#160=LINE('',#159,#158);
#161=DIRECTION('',(0.E0,0.E0,1.E0));
#162=VECTOR('',#161,6.5E0);
#163=CARTESIAN_POINT('',(-1.5E0,4.2E0,6.35E0));
#164=LINE('',#163,#162);
#165=DIRECTION('',(0.E0,-1.E0,0.E0));
#166=VECTOR('',#165,1.E-1);
#167=CARTESIAN_POINT('',(1.5E0,4.2E0,1.285E1));
#168=LINE('',#167,#166);
#169=DIRECTION('',(0.E0,0.E0,1.E0));
#170=VECTOR('',#169,6.5E0);
#171=CARTESIAN_POINT('',(-1.5E0,4.1E0,6.35E0));
#172=LINE('',#171,#170);
#173=DIRECTION('',(1.E0,0.E0,0.E0));
#174=VECTOR('',#173,3.E0);
#175=CARTESIAN_POINT('',(-1.5E0,4.1E0,1.285E1));
#176=LINE('',#175,#174);
#177=DIRECTION('',(0.E0,0.E0,-1.E0));
#178=VECTOR('',#177,6.5E0);
#179=CARTESIAN_POINT('',(1.5E0,4.1E0,1.285E1));
#180=LINE('',#179,#178);
#181=DIRECTION('',(0.E0,-1.E0,0.E0));
#182=VECTOR('',#181,1.E-1);
#183=CARTESIAN_POINT('',(-1.5E0,4.2E0,1.285E1));
#184=LINE('',#183,#182);
#185=DIRECTION('',(0.E0,-1.E0,0.E0));
#186=VECTOR('',#185,3.17E0);
#187=CARTESIAN_POINT('',(1.2315E1,3.17E0,0.E0));
#188=LINE('',#187,#186);
#189=DIRECTION('',(0.E0,-1.E0,0.E0));
#190=VECTOR('',#189,3.17E0);
#191=CARTESIAN_POINT('',(8.005E0,3.17E0,0.E0));
#192=LINE('',#191,#190);
#193=DIRECTION('',(0.E0,-1.E0,0.E0));
#194=VECTOR('',#193,3.17E0);
#195=CARTESIAN_POINT('',(-8.005E0,3.17E0,0.E0));
#196=LINE('',#195,#194);
#197=DIRECTION('',(0.E0,-1.E0,0.E0));
#198=VECTOR('',#197,3.17E0);
#199=CARTESIAN_POINT('',(-1.2315E1,3.17E0,0.E0));
#200=LINE('',#199,#198);
#201=CARTESIAN_POINT('',(-1.397E1,0.E0,-6.35E0));
#202=CARTESIAN_POINT('',(-1.397E1,0.E0,6.35E0));
#203=VERTEX_POINT('',#201);
#204=VERTEX_POINT('',#202);
#205=CARTESIAN_POINT('',(1.397E1,0.E0,6.35E0));
#206=VERTEX_POINT('',#205);
#207=CARTESIAN_POINT('',(1.397E1,0.E0,-6.35E0));
#208=VERTEX_POINT('',#207);
#209=CARTESIAN_POINT('',(-1.397E1,3.17E0,-6.35E0));
#210=CARTESIAN_POINT('',(-1.397E1,3.17E0,6.35E0));
#211=VERTEX_POINT('',#209);
#212=VERTEX_POINT('',#210);
#213=CARTESIAN_POINT('',(1.397E1,3.17E0,6.35E0));
#214=CARTESIAN_POINT('',(1.397E1,3.17E0,-6.35E0));
#215=VERTEX_POINT('',#213);
#216=VERTEX_POINT('',#214);
#217=CARTESIAN_POINT('',(-6.35E0,6.E0,-6.35E0));
#218=CARTESIAN_POINT('',(-6.35E0,6.E0,6.35E0));
#219=VERTEX_POINT('',#217);
#220=VERTEX_POINT('',#218);
#221=CARTESIAN_POINT('',(6.35E0,6.E0,6.35E0));
#222=VERTEX_POINT('',#221);
#223=CARTESIAN_POINT('',(6.35E0,6.E0,-6.35E0));
#224=VERTEX_POINT('',#223);
#225=CARTESIAN_POINT('',(-6.35E0,3.17E0,6.35E0));
#226=CARTESIAN_POINT('',(-6.35E0,3.17E0,-6.35E0));
#227=VERTEX_POINT('',#225);
#228=VERTEX_POINT('',#226);
#229=CARTESIAN_POINT('',(6.35E0,3.17E0,6.35E0));
#230=CARTESIAN_POINT('',(6.35E0,3.17E0,-6.35E0));
#231=VERTEX_POINT('',#229);
#232=VERTEX_POINT('',#230);
#233=CARTESIAN_POINT('',(-1.5E0,4.2E0,1.285E1));
#234=CARTESIAN_POINT('',(1.5E0,4.2E0,1.285E1));
#235=VERTEX_POINT('',#233);
#236=VERTEX_POINT('',#234);
#237=CARTESIAN_POINT('',(-1.5E0,4.1E0,1.285E1));
#238=CARTESIAN_POINT('',(1.5E0,4.1E0,1.285E1));
#239=VERTEX_POINT('',#237);
#240=VERTEX_POINT('',#238);
#241=CARTESIAN_POINT('',(-1.5E0,4.2E0,6.35E0));
#242=CARTESIAN_POINT('',(1.5E0,4.2E0,6.35E0));
#243=VERTEX_POINT('',#241);
#244=VERTEX_POINT('',#242);
#245=CARTESIAN_POINT('',(-1.5E0,4.1E0,6.35E0));
#246=CARTESIAN_POINT('',(1.5E0,4.1E0,6.35E0));
#247=VERTEX_POINT('',#245);
#248=VERTEX_POINT('',#246);
#249=CARTESIAN_POINT('',(1.2315E1,0.E0,0.E0));
#250=CARTESIAN_POINT('',(8.005E0,0.E0,0.E0));
#251=VERTEX_POINT('',#249);
#252=VERTEX_POINT('',#250);
#253=CARTESIAN_POINT('',(-8.005E0,0.E0,0.E0));
#254=CARTESIAN_POINT('',(-1.2315E1,0.E0,0.E0));
#255=VERTEX_POINT('',#253);
#256=VERTEX_POINT('',#254);
#257=CARTESIAN_POINT('',(1.2315E1,3.17E0,0.E0));
#258=CARTESIAN_POINT('',(8.005E0,3.17E0,0.E0));
#259=VERTEX_POINT('',#257);
#260=VERTEX_POINT('',#258);
#261=CARTESIAN_POINT('',(-8.005E0,3.17E0,0.E0));
#262=CARTESIAN_POINT('',(-1.2315E1,3.17E0,0.E0));
#263=VERTEX_POINT('',#261);
#264=VERTEX_POINT('',#262);
#265=CARTESIAN_POINT('',(0.E0,0.E0,0.E0));
#266=DIRECTION('',(0.E0,1.E0,0.E0));
#267=DIRECTION('',(1.E0,0.E0,0.E0));
#268=AXIS2_PLACEMENT_3D('',#265,#266,#267);
#269=PLANE('',#268);
#271=ORIENTED_EDGE('',*,*,#270,.T.);
#273=ORIENTED_EDGE('',*,*,#272,.T.);
#275=ORIENTED_EDGE('',*,*,#274,.T.);
#277=ORIENTED_EDGE('',*,*,#276,.T.);
#278=EDGE_LOOP('',(#271,#273,#275,#277));
#279=FACE_OUTER_BOUND('',#278,.F.);
#281=ORIENTED_EDGE('',*,*,#280,.F.);
#283=ORIENTED_EDGE('',*,*,#282,.F.);
#284=EDGE_LOOP('',(#281,#283));
#285=FACE_BOUND('',#284,.F.);
#287=ORIENTED_EDGE('',*,*,#286,.F.);
#289=ORIENTED_EDGE('',*,*,#288,.F.);
#290=EDGE_LOOP('',(#287,#289));
#291=FACE_BOUND('',#290,.F.);
#293=CARTESIAN_POINT('',(-1.397E1,0.E0,-6.35E0));
#294=DIRECTION('',(-1.E0,0.E0,0.E0));
#295=DIRECTION('',(0.E0,0.E0,1.E0));
#296=AXIS2_PLACEMENT_3D('',#293,#294,#295);
#297=PLANE('',#296);
#298=ORIENTED_EDGE('',*,*,#270,.F.);
#300=ORIENTED_EDGE('',*,*,#299,.T.);
#302=ORIENTED_EDGE('',*,*,#301,.T.);
#304=ORIENTED_EDGE('',*,*,#303,.F.);
#305=EDGE_LOOP('',(#298,#300,#302,#304));
#306=FACE_OUTER_BOUND('',#305,.F.);
#308=CARTESIAN_POINT('',(1.397E1,0.E0,-6.35E0));
#309=DIRECTION('',(0.E0,0.E0,-1.E0));
#310=DIRECTION('',(-1.E0,0.E0,0.E0));
#311=AXIS2_PLACEMENT_3D('',#308,#309,#310);
#312=PLANE('',#311);
#314=ORIENTED_EDGE('',*,*,#313,.T.);
#316=ORIENTED_EDGE('',*,*,#315,.T.);
#318=ORIENTED_EDGE('',*,*,#317,.T.);
#320=ORIENTED_EDGE('',*,*,#319,.F.);
#322=ORIENTED_EDGE('',*,*,#321,.T.);
#323=ORIENTED_EDGE('',*,*,#299,.F.);
#324=ORIENTED_EDGE('',*,*,#276,.F.);
#326=ORIENTED_EDGE('',*,*,#325,.T.);
#327=EDGE_LOOP('',(#314,#316,#318,#320,#322,#323,#324,#326));
#328=FACE_OUTER_BOUND('',#327,.F.);
#330=CARTESIAN_POINT('',(0.E0,3.17E0,0.E0));
#331=DIRECTION('',(0.E0,1.E0,0.E0));
#332=DIRECTION('',(1.E0,0.E0,0.E0));
#333=AXIS2_PLACEMENT_3D('',#330,#331,#332);
#334=PLANE('',#333);
#336=ORIENTED_EDGE('',*,*,#335,.F.);
#338=ORIENTED_EDGE('',*,*,#337,.F.);
#339=ORIENTED_EDGE('',*,*,#301,.F.);
#340=ORIENTED_EDGE('',*,*,#321,.F.);
#341=EDGE_LOOP('',(#336,#338,#339,#340));
#342=FACE_OUTER_BOUND('',#341,.F.);
#344=ORIENTED_EDGE('',*,*,#343,.T.);
#346=ORIENTED_EDGE('',*,*,#345,.T.);
#347=EDGE_LOOP('',(#344,#346));
#348=FACE_BOUND('',#347,.F.);
#350=CARTESIAN_POINT('',(0.E0,3.17E0,0.E0));
#351=DIRECTION('',(0.E0,1.E0,0.E0));
#352=DIRECTION('',(1.E0,0.E0,0.E0));
#353=AXIS2_PLACEMENT_3D('',#350,#351,#352);
#354=PLANE('',#353);
#356=ORIENTED_EDGE('',*,*,#355,.T.);
#357=ORIENTED_EDGE('',*,*,#313,.F.);
#359=ORIENTED_EDGE('',*,*,#358,.F.);
#361=ORIENTED_EDGE('',*,*,#360,.F.);
#362=EDGE_LOOP('',(#356,#357,#359,#361));
#363=FACE_OUTER_BOUND('',#362,.F.);
#365=ORIENTED_EDGE('',*,*,#364,.T.);
#367=ORIENTED_EDGE('',*,*,#366,.T.);
#368=EDGE_LOOP('',(#365,#367));
#369=FACE_BOUND('',#368,.F.);
#371=CARTESIAN_POINT('',(-6.35E0,0.E0,-6.35E0));
#372=DIRECTION('',(-1.E0,0.E0,0.E0));
#373=DIRECTION('',(0.E0,0.E0,1.E0));
#374=AXIS2_PLACEMENT_3D('',#371,#372,#373);
#375=PLANE('',#374);
#376=ORIENTED_EDGE('',*,*,#335,.T.);
#377=ORIENTED_EDGE('',*,*,#319,.T.);
#379=ORIENTED_EDGE('',*,*,#378,.T.);
#381=ORIENTED_EDGE('',*,*,#380,.F.);
#382=EDGE_LOOP('',(#376,#377,#379,#381));
#383=FACE_OUTER_BOUND('',#382,.F.);
#385=CARTESIAN_POINT('',(0.E0,6.E0,0.E0));
#386=DIRECTION('',(0.E0,1.E0,0.E0));
#387=DIRECTION('',(1.E0,0.E0,0.E0));
#388=AXIS2_PLACEMENT_3D('',#385,#386,#387);
#389=PLANE('',#388);
#390=ORIENTED_EDGE('',*,*,#378,.F.);
#391=ORIENTED_EDGE('',*,*,#317,.F.);
#393=ORIENTED_EDGE('',*,*,#392,.F.);
#395=ORIENTED_EDGE('',*,*,#394,.F.);
#396=EDGE_LOOP('',(#390,#391,#393,#395));
#397=FACE_OUTER_BOUND('',#396,.F.);
#399=CARTESIAN_POINT('',(6.35E0,0.E0,6.35E0));
#400=DIRECTION('',(1.E0,0.E0,0.E0));
#401=DIRECTION('',(0.E0,0.E0,-1.E0));
#402=AXIS2_PLACEMENT_3D('',#399,#400,#401);
#403=PLANE('',#402);
#404=ORIENTED_EDGE('',*,*,#355,.F.);
#406=ORIENTED_EDGE('',*,*,#405,.T.);
#407=ORIENTED_EDGE('',*,*,#392,.T.);
#408=ORIENTED_EDGE('',*,*,#315,.F.);
#409=EDGE_LOOP('',(#404,#406,#407,#408));
#410=FACE_OUTER_BOUND('',#409,.F.);
#412=CARTESIAN_POINT('',(-1.397E1,0.E0,6.35E0));
#413=DIRECTION('',(0.E0,0.E0,1.E0));
#414=DIRECTION('',(1.E0,0.E0,0.E0));
#415=AXIS2_PLACEMENT_3D('',#412,#413,#414);
#416=PLANE('',#415);
#417=ORIENTED_EDGE('',*,*,#337,.T.);
#418=ORIENTED_EDGE('',*,*,#380,.T.);
#419=ORIENTED_EDGE('',*,*,#394,.T.);
#420=ORIENTED_EDGE('',*,*,#405,.F.);
#421=ORIENTED_EDGE('',*,*,#360,.T.);
#423=ORIENTED_EDGE('',*,*,#422,.F.);
#424=ORIENTED_EDGE('',*,*,#272,.F.);
#425=ORIENTED_EDGE('',*,*,#303,.T.);
#426=EDGE_LOOP('',(#417,#418,#419,#420,#421,#423,#424,#425));
#427=FACE_OUTER_BOUND('',#426,.F.);
#429=ORIENTED_EDGE('',*,*,#428,.F.);
#431=ORIENTED_EDGE('',*,*,#430,.F.);
#433=ORIENTED_EDGE('',*,*,#432,.T.);
#435=ORIENTED_EDGE('',*,*,#434,.T.);
#436=EDGE_LOOP('',(#429,#431,#433,#435));
#437=FACE_BOUND('',#436,.F.);
#439=CARTESIAN_POINT('',(1.397E1,0.E0,6.35E0));
#440=DIRECTION('',(1.E0,0.E0,0.E0));
#441=DIRECTION('',(0.E0,0.E0,-1.E0));
#442=AXIS2_PLACEMENT_3D('',#439,#440,#441);
#443=PLANE('',#442);
#444=ORIENTED_EDGE('',*,*,#274,.F.);
#445=ORIENTED_EDGE('',*,*,#422,.T.);
#446=ORIENTED_EDGE('',*,*,#358,.T.);
#447=ORIENTED_EDGE('',*,*,#325,.F.);
#448=EDGE_LOOP('',(#444,#445,#446,#447));
#449=FACE_OUTER_BOUND('',#448,.F.);
#451=CARTESIAN_POINT('',(0.E0,4.2E0,0.E0));
#452=DIRECTION('',(0.E0,1.E0,0.E0));
#453=DIRECTION('',(1.E0,0.E0,0.E0));
#454=AXIS2_PLACEMENT_3D('',#451,#452,#453);
#455=PLANE('',#454);
#456=ORIENTED_EDGE('',*,*,#428,.T.);
#458=ORIENTED_EDGE('',*,*,#457,.F.);
#460=ORIENTED_EDGE('',*,*,#459,.F.);
#462=ORIENTED_EDGE('',*,*,#461,.F.);
#463=EDGE_LOOP('',(#456,#458,#460,#462));
#464=FACE_OUTER_BOUND('',#463,.F.);
#466=CARTESIAN_POINT('',(1.5E0,4.2E0,1.285E1));
#467=DIRECTION('',(1.E0,0.E0,0.E0));
#468=DIRECTION('',(0.E0,0.E0,-1.E0));
#469=AXIS2_PLACEMENT_3D('',#466,#467,#468);
#470=PLANE('',#469);
#471=ORIENTED_EDGE('',*,*,#434,.F.);
#473=ORIENTED_EDGE('',*,*,#472,.F.);
#475=ORIENTED_EDGE('',*,*,#474,.F.);
#476=ORIENTED_EDGE('',*,*,#457,.T.);
#477=EDGE_LOOP('',(#471,#473,#475,#476));
#478=FACE_OUTER_BOUND('',#477,.F.);
#480=CARTESIAN_POINT('',(0.E0,4.1E0,0.E0));
#481=DIRECTION('',(0.E0,1.E0,0.E0));
#482=DIRECTION('',(1.E0,0.E0,0.E0));
#483=AXIS2_PLACEMENT_3D('',#480,#481,#482);
#484=PLANE('',#483);
#485=ORIENTED_EDGE('',*,*,#432,.F.);
#487=ORIENTED_EDGE('',*,*,#486,.T.);
#489=ORIENTED_EDGE('',*,*,#488,.T.);
#490=ORIENTED_EDGE('',*,*,#472,.T.);
#491=EDGE_LOOP('',(#485,#487,#489,#490));
#492=FACE_OUTER_BOUND('',#491,.F.);
#494=CARTESIAN_POINT('',(-1.5E0,4.2E0,3.105520731816E0));
#495=DIRECTION('',(-1.E0,0.E0,0.E0));
#496=DIRECTION('',(0.E0,0.E0,1.E0));
#497=AXIS2_PLACEMENT_3D('',#494,#495,#496);
#498=PLANE('',#497);
#499=ORIENTED_EDGE('',*,*,#430,.T.);
#500=ORIENTED_EDGE('',*,*,#461,.T.);
#502=ORIENTED_EDGE('',*,*,#501,.T.);
#503=ORIENTED_EDGE('',*,*,#486,.F.);
#504=EDGE_LOOP('',(#499,#500,#502,#503));
#505=FACE_OUTER_BOUND('',#504,.F.);
#507=CARTESIAN_POINT('',(-1.5E0,4.2E0,1.285E1));
#508=DIRECTION('',(0.E0,0.E0,1.E0));
#509=DIRECTION('',(1.E0,0.E0,0.E0));
#510=AXIS2_PLACEMENT_3D('',#507,#508,#509);
#511=PLANE('',#510);
#512=ORIENTED_EDGE('',*,*,#459,.T.);
#513=ORIENTED_EDGE('',*,*,#474,.T.);
#514=ORIENTED_EDGE('',*,*,#488,.F.);
#515=ORIENTED_EDGE('',*,*,#501,.F.);
#516=EDGE_LOOP('',(#512,#513,#514,#515));
#517=FACE_OUTER_BOUND('',#516,.F.);
#519=CARTESIAN_POINT('',(1.016E1,3.17E0,0.E0));
#520=DIRECTION('',(0.E0,1.E0,0.E0));
#521=DIRECTION('',(1.E0,0.E0,0.E0));
#522=AXIS2_PLACEMENT_3D('',#519,#520,#521);
#523=CYLINDRICAL_SURFACE('',#522,2.155E0);
#524=ORIENTED_EDGE('',*,*,#280,.T.);
#526=ORIENTED_EDGE('',*,*,#525,.F.);
#527=ORIENTED_EDGE('',*,*,#364,.F.);
#529=ORIENTED_EDGE('',*,*,#528,.T.);
#530=EDGE_LOOP('',(#524,#526,#527,#529));
#531=FACE_OUTER_BOUND('',#530,.F.);
#533=CARTESIAN_POINT('',(1.016E1,3.17E0,0.E0));
#534=DIRECTION('',(0.E0,1.E0,0.E0));
#535=DIRECTION('',(1.E0,0.E0,0.E0));
#536=AXIS2_PLACEMENT_3D('',#533,#534,#535);
#537=CYLINDRICAL_SURFACE('',#536,2.155E0);
#538=ORIENTED_EDGE('',*,*,#282,.T.);
#539=ORIENTED_EDGE('',*,*,#528,.F.);
#540=ORIENTED_EDGE('',*,*,#366,.F.);
#541=ORIENTED_EDGE('',*,*,#525,.T.);
#542=EDGE_LOOP('',(#538,#539,#540,#541));
#543=FACE_OUTER_BOUND('',#542,.F.);
#545=CARTESIAN_POINT('',(-1.016E1,3.17E0,0.E0));
#546=DIRECTION('',(0.E0,1.E0,0.E0));
#547=DIRECTION('',(1.E0,0.E0,0.E0));
#548=AXIS2_PLACEMENT_3D('',#545,#546,#547);
#549=CYLINDRICAL_SURFACE('',#548,2.155E0);
#550=ORIENTED_EDGE('',*,*,#286,.T.);
#552=ORIENTED_EDGE('',*,*,#551,.F.);
#553=ORIENTED_EDGE('',*,*,#343,.F.);
#555=ORIENTED_EDGE('',*,*,#554,.T.);
#556=EDGE_LOOP('',(#550,#552,#553,#555));
#557=FACE_OUTER_BOUND('',#556,.F.);
#559=CARTESIAN_POINT('',(-1.016E1,3.17E0,0.E0));
#560=DIRECTION('',(0.E0,1.E0,0.E0));
#561=DIRECTION('',(1.E0,0.E0,0.E0));
#562=AXIS2_PLACEMENT_3D('',#559,#560,#561);
#563=CYLINDRICAL_SURFACE('',#562,2.155E0);
#564=ORIENTED_EDGE('',*,*,#288,.T.);
#565=ORIENTED_EDGE('',*,*,#554,.F.);
#566=ORIENTED_EDGE('',*,*,#345,.F.);
#567=ORIENTED_EDGE('',*,*,#551,.T.);
#568=EDGE_LOOP('',(#564,#565,#566,#567));
#569=FACE_OUTER_BOUND('',#568,.F.);
#571=CLOSED_SHELL('',(#292,#307,#329,#349,#370,#384,#398,#411,#438,#450,#465,
#479,#493,#506,#518,#532,#544,#558,#570));
#572=MANIFOLD_SOLID_BREP('',#571);
#574=DIMENSIONAL_EXPONENTS(0.E0,0.E0,0.E0,0.E0,0.E0,0.E0,0.E0);
#576=PLANE_ANGLE_MEASURE_WITH_UNIT(PLANE_ANGLE_MEASURE(1.745329251994E-2),#575);
#577=(CONVERSION_BASED_UNIT('DEGREE',#576)NAMED_UNIT(*)PLANE_ANGLE_UNIT());
#579=UNCERTAINTY_MEASURE_WITH_UNIT(LENGTH_MEASURE(1.434440451308E-3),#573,
'closure',
'Maximum model space distance between geometric entities at asserted connectivities');
#582=APPLICATION_CONTEXT(
'CONFIGURATION CONTROLLED 3D DESIGNS OF MECHANICAL PARTS AND ASSEMBLIES');
#583=APPLICATION_PROTOCOL_DEFINITION('international standard',
'config_control_design',1994,#582);
#584=DESIGN_CONTEXT('',#582,'design');
#585=MECHANICAL_CONTEXT('',#582,'mechanical');
#586=PRODUCT('CHF11050CBF','CHF11050CBF','NOT SPECIFIED',(#585));
#587=PRODUCT_DEFINITION_FORMATION_WITH_SPECIFIED_SOURCE('1','LAST_VERSION',#586,
.MADE.);
#591=PRODUCT_CATEGORY('part','');
#592=PRODUCT_RELATED_PRODUCT_CATEGORY('detail','',(#586));
#593=PRODUCT_CATEGORY_RELATIONSHIP('','',#591,#592);
#594=SECURITY_CLASSIFICATION_LEVEL('unclassified');
#595=SECURITY_CLASSIFICATION('','',#594);
#596=CC_DESIGN_SECURITY_CLASSIFICATION(#595,(#587));
#597=APPROVAL_STATUS('approved');
#598=APPROVAL(#597,'');
#599=CC_DESIGN_APPROVAL(#598,(#595,#587,#588));
#600=CALENDAR_DATE(112,17,8);
#601=COORDINATED_UNIVERSAL_TIME_OFFSET(7,0,.BEHIND.);
#602=LOCAL_TIME(16,15,2.8E1,#601);
#603=DATE_AND_TIME(#600,#602);
#604=APPROVAL_DATE_TIME(#603,#598);
#605=DATE_TIME_ROLE('creation_date');
#606=CC_DESIGN_DATE_AND_TIME_ASSIGNMENT(#603,#605,(#588));
#607=DATE_TIME_ROLE('classification_date');
#608=CC_DESIGN_DATE_AND_TIME_ASSIGNMENT(#603,#607,(#595));
#609=PERSON('UNSPECIFIED','UNSPECIFIED',$,$,$,$);
#610=ORGANIZATION('UNSPECIFIED','UNSPECIFIED','UNSPECIFIED');
#611=PERSON_AND_ORGANIZATION(#609,#610);
#612=APPROVAL_ROLE('approver');
#613=APPROVAL_PERSON_ORGANIZATION(#611,#598,#612);
#614=PERSON_AND_ORGANIZATION_ROLE('creator');
#615=CC_DESIGN_PERSON_AND_ORGANIZATION_ASSIGNMENT(#611,#614,(#587,#588));
#616=PERSON_AND_ORGANIZATION_ROLE('design_supplier');
#617=CC_DESIGN_PERSON_AND_ORGANIZATION_ASSIGNMENT(#611,#616,(#587));
#618=PERSON_AND_ORGANIZATION_ROLE('classification_officer');
#619=CC_DESIGN_PERSON_AND_ORGANIZATION_ASSIGNMENT(#611,#618,(#595));
#620=PERSON_AND_ORGANIZATION_ROLE('design_owner');
#621=CC_DESIGN_PERSON_AND_ORGANIZATION_ASSIGNMENT(#611,#620,(#586));
#21=CIRCLE('',#20,2.155E0);
#26=CIRCLE('',#25,2.155E0);
#31=CIRCLE('',#30,2.155E0);
#36=CIRCLE('',#35,2.155E0);
#85=CIRCLE('',#84,2.155E0);
#90=CIRCLE('',#89,2.155E0);
#95=CIRCLE('',#94,2.155E0);
#100=CIRCLE('',#99,2.155E0);
#270=EDGE_CURVE('',#203,#204,#4,.T.);
#272=EDGE_CURVE('',#204,#206,#8,.T.);
#274=EDGE_CURVE('',#206,#208,#12,.T.);
#276=EDGE_CURVE('',#208,#203,#16,.T.);
#280=EDGE_CURVE('',#251,#252,#21,.T.);
#282=EDGE_CURVE('',#252,#251,#26,.T.);
#286=EDGE_CURVE('',#255,#256,#31,.T.);
#288=EDGE_CURVE('',#256,#255,#36,.T.);
#292=ADVANCED_FACE('',(#279,#285,#291),#269,.F.);
#299=EDGE_CURVE('',#203,#211,#40,.T.);
#301=EDGE_CURVE('',#211,#212,#60,.T.);
#303=EDGE_CURVE('',#204,#212,#132,.T.);
#307=ADVANCED_FACE('',(#306),#297,.T.);
#313=EDGE_CURVE('',#216,#232,#72,.T.);
#315=EDGE_CURVE('',#232,#224,#44,.T.);
#317=EDGE_CURVE('',#224,#219,#112,.T.);
#319=EDGE_CURVE('',#228,#219,#104,.T.);
#321=EDGE_CURVE('',#228,#211,#64,.T.);
#325=EDGE_CURVE('',#208,#216,#48,.T.);
#329=ADVANCED_FACE('',(#328),#312,.T.);
#335=EDGE_CURVE('',#227,#228,#52,.T.);
#337=EDGE_CURVE('',#212,#227,#56,.T.);
#343=EDGE_CURVE('',#263,#264,#95,.T.);
#345=EDGE_CURVE('',#264,#263,#100,.T.);
#349=ADVANCED_FACE('',(#342,#348),#334,.T.);
#355=EDGE_CURVE('',#231,#232,#68,.T.);
#358=EDGE_CURVE('',#215,#216,#76,.T.);
#360=EDGE_CURVE('',#231,#215,#80,.T.);
#364=EDGE_CURVE('',#259,#260,#85,.T.);
#366=EDGE_CURVE('',#260,#259,#90,.T.);
#370=ADVANCED_FACE('',(#363,#369),#354,.T.);
#378=EDGE_CURVE('',#219,#220,#108,.T.);
#380=EDGE_CURVE('',#227,#220,#128,.T.);
#384=ADVANCED_FACE('',(#383),#375,.T.);
#392=EDGE_CURVE('',#222,#224,#116,.T.);
#394=EDGE_CURVE('',#220,#222,#120,.T.);
#398=ADVANCED_FACE('',(#397),#389,.T.);
#405=EDGE_CURVE('',#231,#222,#124,.T.);
#411=ADVANCED_FACE('',(#410),#403,.T.);
#422=EDGE_CURVE('',#206,#215,#152,.T.);
#428=EDGE_CURVE('',#243,#244,#136,.T.);
#430=EDGE_CURVE('',#247,#243,#140,.T.);
#432=EDGE_CURVE('',#247,#248,#144,.T.);
#434=EDGE_CURVE('',#248,#244,#148,.T.);
#438=ADVANCED_FACE('',(#427,#437),#416,.T.);
#450=ADVANCED_FACE('',(#449),#443,.T.);
#457=EDGE_CURVE('',#236,#244,#156,.T.);
#459=EDGE_CURVE('',#235,#236,#160,.T.);
#461=EDGE_CURVE('',#243,#235,#164,.T.);
#465=ADVANCED_FACE('',(#464),#455,.T.);
#472=EDGE_CURVE('',#240,#248,#180,.T.);
#474=EDGE_CURVE('',#236,#240,#168,.T.);
#479=ADVANCED_FACE('',(#478),#470,.T.);
#486=EDGE_CURVE('',#247,#239,#172,.T.);
#488=EDGE_CURVE('',#239,#240,#176,.T.);
#493=ADVANCED_FACE('',(#492),#484,.F.);
#501=EDGE_CURVE('',#235,#239,#184,.T.);
#506=ADVANCED_FACE('',(#505),#498,.T.);
#518=ADVANCED_FACE('',(#517),#511,.T.);
#525=EDGE_CURVE('',#260,#252,#192,.T.);
#528=EDGE_CURVE('',#259,#251,#188,.T.);
#532=ADVANCED_FACE('',(#531),#523,.F.);
#544=ADVANCED_FACE('',(#543),#537,.F.);
#551=EDGE_CURVE('',#264,#256,#200,.T.);
#554=EDGE_CURVE('',#263,#255,#196,.T.);
#558=ADVANCED_FACE('',(#557),#549,.F.);
#570=ADVANCED_FACE('',(#569),#563,.F.);
#573=(LENGTH_UNIT()NAMED_UNIT(*)SI_UNIT(.MILLI.,.METRE.));
#575=(NAMED_UNIT(*)PLANE_ANGLE_UNIT()SI_UNIT($,.RADIAN.));
#578=(NAMED_UNIT(*)SI_UNIT($,.STERADIAN.)SOLID_ANGLE_UNIT());
#580=(GEOMETRIC_REPRESENTATION_CONTEXT(3)GLOBAL_UNCERTAINTY_ASSIGNED_CONTEXT((
#579))GLOBAL_UNIT_ASSIGNED_CONTEXT((#573,#577,#578))REPRESENTATION_CONTEXT
('ID1','3'));
#581=ADVANCED_BREP_SHAPE_REPRESENTATION('',(#572),#580);
#588=PRODUCT_DEFINITION('design','',#587,#584);
#589=PRODUCT_DEFINITION_SHAPE('','SHAPE FOR CHF11050CBF.',#588);
#590=SHAPE_DEFINITION_REPRESENTATION(#589,#581);
ENDSEC;
END-ISO-10303-21;
