ISO-10303-21;
HEADER;
FILE_DESCRIPTION((''),'2;1');
FILE_NAME('CHF12545D','2012-08-20T',('ryans'),('Bourns, Inc.'),
'PRO/ENGINEER BY PARAMETRIC TECHNOLOGY CORPORATION, 2010100',
'PRO/ENGINEER BY PARAMETRIC TECHNOLOGY CORPORATION, 2010100','');
FILE_SCHEMA(('CONFIG_CONTROL_DESIGN'));
ENDSEC;
DATA;
#1=DIRECTION('',(0.E0,0.E0,1.E0));
#2=VECTOR('',#1,1.27E1);
#3=CARTESIAN_POINT('',(-1.5875E1,0.E0,-6.35E0));
#4=LINE('',#3,#2);
#5=DIRECTION('',(1.E0,0.E0,0.E0));
#6=VECTOR('',#5,3.175E1);
#7=CARTESIAN_POINT('',(-1.5875E1,0.E0,6.35E0));
#8=LINE('',#7,#6);
#9=DIRECTION('',(0.E0,0.E0,-1.E0));
#10=VECTOR('',#9,1.27E1);
#11=CARTESIAN_POINT('',(1.5875E1,0.E0,6.35E0));
#12=LINE('',#11,#10);
#13=DIRECTION('',(-1.E0,0.E0,0.E0));
#14=VECTOR('',#13,3.175E1);
#15=CARTESIAN_POINT('',(1.5875E1,0.E0,-6.35E0));
#16=LINE('',#15,#14);
#17=CARTESIAN_POINT('',(1.1125E1,0.E0,0.E0));
#18=DIRECTION('',(0.E0,1.E0,0.E0));
#19=DIRECTION('',(1.E0,0.E0,0.E0));
#20=AXIS2_PLACEMENT_3D('',#17,#18,#19);
#22=CARTESIAN_POINT('',(1.1125E1,0.E0,0.E0));
#23=DIRECTION('',(0.E0,1.E0,0.E0));
#24=DIRECTION('',(-1.E0,0.E0,0.E0));
#25=AXIS2_PLACEMENT_3D('',#22,#23,#24);
#27=CARTESIAN_POINT('',(-1.1125E1,0.E0,0.E0));
#28=DIRECTION('',(0.E0,1.E0,0.E0));
#29=DIRECTION('',(1.E0,0.E0,0.E0));
#30=AXIS2_PLACEMENT_3D('',#27,#28,#29);
#32=CARTESIAN_POINT('',(-1.1125E1,0.E0,0.E0));
#33=DIRECTION('',(0.E0,1.E0,0.E0));
#34=DIRECTION('',(-1.E0,0.E0,0.E0));
#35=AXIS2_PLACEMENT_3D('',#32,#33,#34);
#37=DIRECTION('',(0.E0,1.E0,0.E0));
#38=VECTOR('',#37,3.17E0);
#39=CARTESIAN_POINT('',(-1.5875E1,0.E0,-6.35E0));
#40=LINE('',#39,#38);
#41=DIRECTION('',(0.E0,1.E0,0.E0));
#42=VECTOR('',#41,1.9E0);
#43=CARTESIAN_POINT('',(6.35E0,3.17E0,-6.35E0));
#44=LINE('',#43,#42);
#45=DIRECTION('',(0.E0,1.E0,0.E0));
#46=VECTOR('',#45,3.17E0);
#47=CARTESIAN_POINT('',(1.5875E1,0.E0,-6.35E0));
#48=LINE('',#47,#46);
#49=DIRECTION('',(1.E0,0.E0,0.E0));
#50=VECTOR('',#49,3.E0);
#51=CARTESIAN_POINT('',(-1.5E0,4.2E0,-6.35E0));
#52=LINE('',#51,#50);
#53=DIRECTION('',(0.E0,1.E0,0.E0));
#54=VECTOR('',#53,1.E-1);
#55=CARTESIAN_POINT('',(1.5E0,4.1E0,-6.35E0));
#56=LINE('',#55,#54);
#57=DIRECTION('',(1.E0,0.E0,0.E0));
#58=VECTOR('',#57,3.E0);
#59=CARTESIAN_POINT('',(-1.5E0,4.1E0,-6.35E0));
#60=LINE('',#59,#58);
#61=DIRECTION('',(0.E0,1.E0,0.E0));
#62=VECTOR('',#61,1.E-1);
#63=CARTESIAN_POINT('',(-1.5E0,4.1E0,-6.35E0));
#64=LINE('',#63,#62);
#65=DIRECTION('',(0.E0,0.E0,-1.E0));
#66=VECTOR('',#65,1.27E1);
#67=CARTESIAN_POINT('',(-6.35E0,3.17E0,6.35E0));
#68=LINE('',#67,#66);
#69=DIRECTION('',(1.E0,0.E0,0.E0));
#70=VECTOR('',#69,9.525E0);
#71=CARTESIAN_POINT('',(-1.5875E1,3.17E0,6.35E0));
#72=LINE('',#71,#70);
#73=DIRECTION('',(0.E0,0.E0,1.E0));
#74=VECTOR('',#73,1.27E1);
#75=CARTESIAN_POINT('',(-1.5875E1,3.17E0,-6.35E0));
#76=LINE('',#75,#74);
#77=DIRECTION('',(-1.E0,0.E0,0.E0));
#78=VECTOR('',#77,9.525E0);
#79=CARTESIAN_POINT('',(-6.35E0,3.17E0,-6.35E0));
#80=LINE('',#79,#78);
#81=DIRECTION('',(0.E0,0.E0,-1.E0));
#82=VECTOR('',#81,1.27E1);
#83=CARTESIAN_POINT('',(6.35E0,3.17E0,6.35E0));
#84=LINE('',#83,#82);
#85=DIRECTION('',(-1.E0,0.E0,0.E0));
#86=VECTOR('',#85,9.525E0);
#87=CARTESIAN_POINT('',(1.5875E1,3.17E0,-6.35E0));
#88=LINE('',#87,#86);
#89=DIRECTION('',(0.E0,0.E0,-1.E0));
#90=VECTOR('',#89,1.27E1);
#91=CARTESIAN_POINT('',(1.5875E1,3.17E0,6.35E0));
#92=LINE('',#91,#90);
#93=DIRECTION('',(1.E0,0.E0,0.E0));
#94=VECTOR('',#93,9.525E0);
#95=CARTESIAN_POINT('',(6.35E0,3.17E0,6.35E0));
#96=LINE('',#95,#94);
#97=CARTESIAN_POINT('',(1.1125E1,3.17E0,0.E0));
#98=DIRECTION('',(0.E0,1.E0,0.E0));
#99=DIRECTION('',(1.E0,0.E0,0.E0));
#100=AXIS2_PLACEMENT_3D('',#97,#98,#99);
#102=CARTESIAN_POINT('',(1.1125E1,3.17E0,0.E0));
#103=DIRECTION('',(0.E0,1.E0,0.E0));
#104=DIRECTION('',(-1.E0,0.E0,0.E0));
#105=AXIS2_PLACEMENT_3D('',#102,#103,#104);
#107=CARTESIAN_POINT('',(-1.1125E1,3.17E0,0.E0));
#108=DIRECTION('',(0.E0,1.E0,0.E0));
#109=DIRECTION('',(1.E0,0.E0,0.E0));
#110=AXIS2_PLACEMENT_3D('',#107,#108,#109);
#112=CARTESIAN_POINT('',(-1.1125E1,3.17E0,0.E0));
#113=DIRECTION('',(0.E0,1.E0,0.E0));
#114=DIRECTION('',(-1.E0,0.E0,0.E0));
#115=AXIS2_PLACEMENT_3D('',#112,#113,#114);
#117=DIRECTION('',(0.E0,1.E0,0.E0));
#118=VECTOR('',#117,1.9E0);
#119=CARTESIAN_POINT('',(-6.35E0,3.17E0,-6.35E0));
#120=LINE('',#119,#118);
#121=DIRECTION('',(0.E0,0.E0,1.E0));
#122=VECTOR('',#121,1.27E1);
#123=CARTESIAN_POINT('',(-6.35E0,5.07E0,-6.35E0));
#124=LINE('',#123,#122);
#125=DIRECTION('',(-1.E0,0.E0,0.E0));
#126=VECTOR('',#125,1.27E1);
#127=CARTESIAN_POINT('',(6.35E0,5.07E0,-6.35E0));
#128=LINE('',#127,#126);
#129=DIRECTION('',(0.E0,0.E0,-1.E0));
#130=VECTOR('',#129,1.27E1);
#131=CARTESIAN_POINT('',(6.35E0,5.07E0,6.35E0));
#132=LINE('',#131,#130);
#133=DIRECTION('',(1.E0,0.E0,0.E0));
#134=VECTOR('',#133,1.27E1);
#135=CARTESIAN_POINT('',(-6.35E0,5.07E0,6.35E0));
#136=LINE('',#135,#134);
#137=DIRECTION('',(0.E0,1.E0,0.E0));
#138=VECTOR('',#137,1.9E0);
#139=CARTESIAN_POINT('',(6.35E0,3.17E0,6.35E0));
#140=LINE('',#139,#138);
#141=DIRECTION('',(0.E0,1.E0,0.E0));
#142=VECTOR('',#141,1.9E0);
#143=CARTESIAN_POINT('',(-6.35E0,3.17E0,6.35E0));
#144=LINE('',#143,#142);
#145=DIRECTION('',(0.E0,1.E0,0.E0));
#146=VECTOR('',#145,3.17E0);
#147=CARTESIAN_POINT('',(-1.5875E1,0.E0,6.35E0));
#148=LINE('',#147,#146);
#149=DIRECTION('',(1.E0,0.E0,0.E0));
#150=VECTOR('',#149,3.E0);
#151=CARTESIAN_POINT('',(-1.5E0,4.2E0,6.35E0));
#152=LINE('',#151,#150);
#153=DIRECTION('',(0.E0,1.E0,0.E0));
#154=VECTOR('',#153,1.E-1);
#155=CARTESIAN_POINT('',(-1.5E0,4.1E0,6.35E0));
#156=LINE('',#155,#154);
#157=DIRECTION('',(1.E0,0.E0,0.E0));
#158=VECTOR('',#157,3.E0);
#159=CARTESIAN_POINT('',(-1.5E0,4.1E0,6.35E0));
#160=LINE('',#159,#158);
#161=DIRECTION('',(0.E0,1.E0,0.E0));
#162=VECTOR('',#161,1.E-1);
#163=CARTESIAN_POINT('',(1.5E0,4.1E0,6.35E0));
#164=LINE('',#163,#162);
#165=DIRECTION('',(0.E0,1.E0,0.E0));
#166=VECTOR('',#165,3.17E0);
#167=CARTESIAN_POINT('',(1.5875E1,0.E0,6.35E0));
#168=LINE('',#167,#166);
#169=DIRECTION('',(0.E0,0.E0,-1.E0));
#170=VECTOR('',#169,6.5E0);
#171=CARTESIAN_POINT('',(1.5E0,4.2E0,1.285E1));
#172=LINE('',#171,#170);
#173=DIRECTION('',(1.E0,0.E0,0.E0));
#174=VECTOR('',#173,3.E0);
#175=CARTESIAN_POINT('',(-1.5E0,4.2E0,1.285E1));
#176=LINE('',#175,#174);
#177=DIRECTION('',(0.E0,0.E0,1.E0));
#178=VECTOR('',#177,6.5E0);
#179=CARTESIAN_POINT('',(-1.5E0,4.2E0,6.35E0));
#180=LINE('',#179,#178);
#181=DIRECTION('',(0.E0,0.E0,1.E0));
#182=VECTOR('',#181,6.5E0);
#183=CARTESIAN_POINT('',(-1.5E0,4.2E0,-1.285E1));
#184=LINE('',#183,#182);
#185=DIRECTION('',(-1.E0,0.E0,0.E0));
#186=VECTOR('',#185,3.E0);
#187=CARTESIAN_POINT('',(1.5E0,4.2E0,-1.285E1));
#188=LINE('',#187,#186);
#189=DIRECTION('',(0.E0,0.E0,-1.E0));
#190=VECTOR('',#189,6.5E0);
#191=CARTESIAN_POINT('',(1.5E0,4.2E0,-6.35E0));
#192=LINE('',#191,#190);
#193=DIRECTION('',(0.E0,-1.E0,0.E0));
#194=VECTOR('',#193,1.E-1);
#195=CARTESIAN_POINT('',(1.5E0,4.2E0,1.285E1));
#196=LINE('',#195,#194);
#197=DIRECTION('',(0.E0,0.E0,1.E0));
#198=VECTOR('',#197,6.5E0);
#199=CARTESIAN_POINT('',(-1.5E0,4.1E0,6.35E0));
#200=LINE('',#199,#198);
#201=DIRECTION('',(1.E0,0.E0,0.E0));
#202=VECTOR('',#201,3.E0);
#203=CARTESIAN_POINT('',(-1.5E0,4.1E0,1.285E1));
#204=LINE('',#203,#202);
#205=DIRECTION('',(0.E0,0.E0,-1.E0));
#206=VECTOR('',#205,6.5E0);
#207=CARTESIAN_POINT('',(1.5E0,4.1E0,1.285E1));
#208=LINE('',#207,#206);
#209=DIRECTION('',(0.E0,0.E0,1.E0));
#210=VECTOR('',#209,6.5E0);
#211=CARTESIAN_POINT('',(-1.5E0,4.1E0,-1.285E1));
#212=LINE('',#211,#210);
#213=DIRECTION('',(0.E0,0.E0,-1.E0));
#214=VECTOR('',#213,6.5E0);
#215=CARTESIAN_POINT('',(1.5E0,4.1E0,-6.35E0));
#216=LINE('',#215,#214);
#217=DIRECTION('',(-1.E0,0.E0,0.E0));
#218=VECTOR('',#217,3.E0);
#219=CARTESIAN_POINT('',(1.5E0,4.1E0,-1.285E1));
#220=LINE('',#219,#218);
#221=DIRECTION('',(0.E0,-1.E0,0.E0));
#222=VECTOR('',#221,1.E-1);
#223=CARTESIAN_POINT('',(-1.5E0,4.2E0,-1.285E1));
#224=LINE('',#223,#222);
#225=DIRECTION('',(0.E0,-1.E0,0.E0));
#226=VECTOR('',#225,1.E-1);
#227=CARTESIAN_POINT('',(-1.5E0,4.2E0,1.285E1));
#228=LINE('',#227,#226);
#229=DIRECTION('',(0.E0,-1.E0,0.E0));
#230=VECTOR('',#229,1.E-1);
#231=CARTESIAN_POINT('',(1.5E0,4.2E0,-1.285E1));
#232=LINE('',#231,#230);
#233=DIRECTION('',(0.E0,-1.E0,0.E0));
#234=VECTOR('',#233,3.17E0);
#235=CARTESIAN_POINT('',(1.3225E1,3.17E0,0.E0));
#236=LINE('',#235,#234);
#237=DIRECTION('',(0.E0,-1.E0,0.E0));
#238=VECTOR('',#237,3.17E0);
#239=CARTESIAN_POINT('',(9.025E0,3.17E0,0.E0));
#240=LINE('',#239,#238);
#241=DIRECTION('',(0.E0,-1.E0,0.E0));
#242=VECTOR('',#241,3.17E0);
#243=CARTESIAN_POINT('',(-9.025E0,3.17E0,0.E0));
#244=LINE('',#243,#242);
#245=DIRECTION('',(0.E0,-1.E0,0.E0));
#246=VECTOR('',#245,3.17E0);
#247=CARTESIAN_POINT('',(-1.3225E1,3.17E0,0.E0));
#248=LINE('',#247,#246);
#249=CARTESIAN_POINT('',(-1.5875E1,0.E0,-6.35E0));
#250=CARTESIAN_POINT('',(-1.5875E1,0.E0,6.35E0));
#251=VERTEX_POINT('',#249);
#252=VERTEX_POINT('',#250);
#253=CARTESIAN_POINT('',(1.5875E1,0.E0,6.35E0));
#254=VERTEX_POINT('',#253);
#255=CARTESIAN_POINT('',(1.5875E1,0.E0,-6.35E0));
#256=VERTEX_POINT('',#255);
#257=CARTESIAN_POINT('',(-1.5875E1,3.17E0,-6.35E0));
#258=CARTESIAN_POINT('',(-1.5875E1,3.17E0,6.35E0));
#259=VERTEX_POINT('',#257);
#260=VERTEX_POINT('',#258);
#261=CARTESIAN_POINT('',(1.5875E1,3.17E0,6.35E0));
#262=CARTESIAN_POINT('',(1.5875E1,3.17E0,-6.35E0));
#263=VERTEX_POINT('',#261);
#264=VERTEX_POINT('',#262);
#265=CARTESIAN_POINT('',(-6.35E0,5.07E0,-6.35E0));
#266=CARTESIAN_POINT('',(-6.35E0,5.07E0,6.35E0));
#267=VERTEX_POINT('',#265);
#268=VERTEX_POINT('',#266);
#269=CARTESIAN_POINT('',(6.35E0,5.07E0,6.35E0));
#270=VERTEX_POINT('',#269);
#271=CARTESIAN_POINT('',(6.35E0,5.07E0,-6.35E0));
#272=VERTEX_POINT('',#271);
#273=CARTESIAN_POINT('',(-6.35E0,3.17E0,6.35E0));
#274=CARTESIAN_POINT('',(-6.35E0,3.17E0,-6.35E0));
#275=VERTEX_POINT('',#273);
#276=VERTEX_POINT('',#274);
#277=CARTESIAN_POINT('',(6.35E0,3.17E0,6.35E0));
#278=CARTESIAN_POINT('',(6.35E0,3.17E0,-6.35E0));
#279=VERTEX_POINT('',#277);
#280=VERTEX_POINT('',#278);
#281=CARTESIAN_POINT('',(-1.5E0,4.2E0,1.285E1));
#282=CARTESIAN_POINT('',(1.5E0,4.2E0,1.285E1));
#283=VERTEX_POINT('',#281);
#284=VERTEX_POINT('',#282);
#285=CARTESIAN_POINT('',(1.5E0,4.2E0,-1.285E1));
#286=CARTESIAN_POINT('',(-1.5E0,4.2E0,-1.285E1));
#287=VERTEX_POINT('',#285);
#288=VERTEX_POINT('',#286);
#289=CARTESIAN_POINT('',(-1.5E0,4.1E0,1.285E1));
#290=CARTESIAN_POINT('',(1.5E0,4.1E0,1.285E1));
#291=VERTEX_POINT('',#289);
#292=VERTEX_POINT('',#290);
#293=CARTESIAN_POINT('',(1.5E0,4.1E0,-1.285E1));
#294=CARTESIAN_POINT('',(-1.5E0,4.1E0,-1.285E1));
#295=VERTEX_POINT('',#293);
#296=VERTEX_POINT('',#294);
#297=CARTESIAN_POINT('',(-1.5E0,4.2E0,6.35E0));
#298=CARTESIAN_POINT('',(1.5E0,4.2E0,6.35E0));
#299=VERTEX_POINT('',#297);
#300=VERTEX_POINT('',#298);
#301=CARTESIAN_POINT('',(-1.5E0,4.1E0,6.35E0));
#302=CARTESIAN_POINT('',(1.5E0,4.1E0,6.35E0));
#303=VERTEX_POINT('',#301);
#304=VERTEX_POINT('',#302);
#305=CARTESIAN_POINT('',(-1.5E0,4.2E0,-6.35E0));
#306=VERTEX_POINT('',#305);
#307=CARTESIAN_POINT('',(-1.5E0,4.1E0,-6.35E0));
#308=VERTEX_POINT('',#307);
#309=CARTESIAN_POINT('',(1.3225E1,0.E0,0.E0));
#310=CARTESIAN_POINT('',(9.025E0,0.E0,0.E0));
#311=VERTEX_POINT('',#309);
#312=VERTEX_POINT('',#310);
#313=CARTESIAN_POINT('',(-9.025E0,0.E0,0.E0));
#314=CARTESIAN_POINT('',(-1.3225E1,0.E0,0.E0));
#315=VERTEX_POINT('',#313);
#316=VERTEX_POINT('',#314);
#317=CARTESIAN_POINT('',(1.3225E1,3.17E0,0.E0));
#318=CARTESIAN_POINT('',(9.025E0,3.17E0,0.E0));
#319=VERTEX_POINT('',#317);
#320=VERTEX_POINT('',#318);
#321=CARTESIAN_POINT('',(-9.025E0,3.17E0,0.E0));
#322=CARTESIAN_POINT('',(-1.3225E1,3.17E0,0.E0));
#323=VERTEX_POINT('',#321);
#324=VERTEX_POINT('',#322);
#325=CARTESIAN_POINT('',(1.5E0,4.2E0,-6.35E0));
#326=VERTEX_POINT('',#325);
#327=CARTESIAN_POINT('',(1.5E0,4.1E0,-6.35E0));
#328=VERTEX_POINT('',#327);
#329=CARTESIAN_POINT('',(0.E0,0.E0,0.E0));
#330=DIRECTION('',(0.E0,1.E0,0.E0));
#331=DIRECTION('',(1.E0,0.E0,0.E0));
#332=AXIS2_PLACEMENT_3D('',#329,#330,#331);
#333=PLANE('',#332);
#335=ORIENTED_EDGE('',*,*,#334,.T.);
#337=ORIENTED_EDGE('',*,*,#336,.T.);
#339=ORIENTED_EDGE('',*,*,#338,.T.);
#341=ORIENTED_EDGE('',*,*,#340,.T.);
#342=EDGE_LOOP('',(#335,#337,#339,#341));
#343=FACE_OUTER_BOUND('',#342,.F.);
#345=ORIENTED_EDGE('',*,*,#344,.F.);
#347=ORIENTED_EDGE('',*,*,#346,.F.);
#348=EDGE_LOOP('',(#345,#347));
#349=FACE_BOUND('',#348,.F.);
#351=ORIENTED_EDGE('',*,*,#350,.F.);
#353=ORIENTED_EDGE('',*,*,#352,.F.);
#354=EDGE_LOOP('',(#351,#353));
#355=FACE_BOUND('',#354,.F.);
#357=CARTESIAN_POINT('',(-1.5875E1,0.E0,-6.35E0));
#358=DIRECTION('',(-1.E0,0.E0,0.E0));
#359=DIRECTION('',(0.E0,0.E0,1.E0));
#360=AXIS2_PLACEMENT_3D('',#357,#358,#359);
#361=PLANE('',#360);
#362=ORIENTED_EDGE('',*,*,#334,.F.);
#364=ORIENTED_EDGE('',*,*,#363,.T.);
#366=ORIENTED_EDGE('',*,*,#365,.T.);
#368=ORIENTED_EDGE('',*,*,#367,.F.);
#369=EDGE_LOOP('',(#362,#364,#366,#368));
#370=FACE_OUTER_BOUND('',#369,.F.);
#372=CARTESIAN_POINT('',(1.5875E1,0.E0,-6.35E0));
#373=DIRECTION('',(0.E0,0.E0,-1.E0));
#374=DIRECTION('',(-1.E0,0.E0,0.E0));
#375=AXIS2_PLACEMENT_3D('',#372,#373,#374);
#376=PLANE('',#375);
#378=ORIENTED_EDGE('',*,*,#377,.T.);
#380=ORIENTED_EDGE('',*,*,#379,.T.);
#382=ORIENTED_EDGE('',*,*,#381,.T.);
#384=ORIENTED_EDGE('',*,*,#383,.F.);
#386=ORIENTED_EDGE('',*,*,#385,.T.);
#387=ORIENTED_EDGE('',*,*,#363,.F.);
#388=ORIENTED_EDGE('',*,*,#340,.F.);
#390=ORIENTED_EDGE('',*,*,#389,.T.);
#391=EDGE_LOOP('',(#378,#380,#382,#384,#386,#387,#388,#390));
#392=FACE_OUTER_BOUND('',#391,.F.);
#394=ORIENTED_EDGE('',*,*,#393,.T.);
#396=ORIENTED_EDGE('',*,*,#395,.F.);
#398=ORIENTED_EDGE('',*,*,#397,.F.);
#400=ORIENTED_EDGE('',*,*,#399,.T.);
#401=EDGE_LOOP('',(#394,#396,#398,#400));
#402=FACE_BOUND('',#401,.F.);
#404=CARTESIAN_POINT('',(0.E0,3.17E0,0.E0));
#405=DIRECTION('',(0.E0,1.E0,0.E0));
#406=DIRECTION('',(1.E0,0.E0,0.E0));
#407=AXIS2_PLACEMENT_3D('',#404,#405,#406);
#408=PLANE('',#407);
#410=ORIENTED_EDGE('',*,*,#409,.F.);
#412=ORIENTED_EDGE('',*,*,#411,.F.);
#413=ORIENTED_EDGE('',*,*,#365,.F.);
#414=ORIENTED_EDGE('',*,*,#385,.F.);
#415=EDGE_LOOP('',(#410,#412,#413,#414));
#416=FACE_OUTER_BOUND('',#415,.F.);
#418=ORIENTED_EDGE('',*,*,#417,.T.);
#420=ORIENTED_EDGE('',*,*,#419,.T.);
#421=EDGE_LOOP('',(#418,#420));
#422=FACE_BOUND('',#421,.F.);
#424=CARTESIAN_POINT('',(0.E0,3.17E0,0.E0));
#425=DIRECTION('',(0.E0,1.E0,0.E0));
#426=DIRECTION('',(1.E0,0.E0,0.E0));
#427=AXIS2_PLACEMENT_3D('',#424,#425,#426);
#428=PLANE('',#427);
#430=ORIENTED_EDGE('',*,*,#429,.T.);
#431=ORIENTED_EDGE('',*,*,#377,.F.);
#433=ORIENTED_EDGE('',*,*,#432,.F.);
#435=ORIENTED_EDGE('',*,*,#434,.F.);
#436=EDGE_LOOP('',(#430,#431,#433,#435));
#437=FACE_OUTER_BOUND('',#436,.F.);
#439=ORIENTED_EDGE('',*,*,#438,.T.);
#441=ORIENTED_EDGE('',*,*,#440,.T.);
#442=EDGE_LOOP('',(#439,#441));
#443=FACE_BOUND('',#442,.F.);
#445=CARTESIAN_POINT('',(-6.35E0,0.E0,-6.35E0));
#446=DIRECTION('',(-1.E0,0.E0,0.E0));
#447=DIRECTION('',(0.E0,0.E0,1.E0));
#448=AXIS2_PLACEMENT_3D('',#445,#446,#447);
#449=PLANE('',#448);
#450=ORIENTED_EDGE('',*,*,#409,.T.);
#451=ORIENTED_EDGE('',*,*,#383,.T.);
#453=ORIENTED_EDGE('',*,*,#452,.T.);
#455=ORIENTED_EDGE('',*,*,#454,.F.);
#456=EDGE_LOOP('',(#450,#451,#453,#455));
#457=FACE_OUTER_BOUND('',#456,.F.);
#459=CARTESIAN_POINT('',(0.E0,5.07E0,0.E0));
#460=DIRECTION('',(0.E0,1.E0,0.E0));
#461=DIRECTION('',(1.E0,0.E0,0.E0));
#462=AXIS2_PLACEMENT_3D('',#459,#460,#461);
#463=PLANE('',#462);
#464=ORIENTED_EDGE('',*,*,#452,.F.);
#465=ORIENTED_EDGE('',*,*,#381,.F.);
#467=ORIENTED_EDGE('',*,*,#466,.F.);
#469=ORIENTED_EDGE('',*,*,#468,.F.);
#470=EDGE_LOOP('',(#464,#465,#467,#469));
#471=FACE_OUTER_BOUND('',#470,.F.);
#473=CARTESIAN_POINT('',(6.35E0,0.E0,6.35E0));
#474=DIRECTION('',(1.E0,0.E0,0.E0));
#475=DIRECTION('',(0.E0,0.E0,-1.E0));
#476=AXIS2_PLACEMENT_3D('',#473,#474,#475);
#477=PLANE('',#476);
#478=ORIENTED_EDGE('',*,*,#429,.F.);
#480=ORIENTED_EDGE('',*,*,#479,.T.);
#481=ORIENTED_EDGE('',*,*,#466,.T.);
#482=ORIENTED_EDGE('',*,*,#379,.F.);
#483=EDGE_LOOP('',(#478,#480,#481,#482));
#484=FACE_OUTER_BOUND('',#483,.F.);
#486=CARTESIAN_POINT('',(-1.5875E1,0.E0,6.35E0));
#487=DIRECTION('',(0.E0,0.E0,1.E0));
#488=DIRECTION('',(1.E0,0.E0,0.E0));
#489=AXIS2_PLACEMENT_3D('',#486,#487,#488);
#490=PLANE('',#489);
#491=ORIENTED_EDGE('',*,*,#411,.T.);
#492=ORIENTED_EDGE('',*,*,#454,.T.);
#493=ORIENTED_EDGE('',*,*,#468,.T.);
#494=ORIENTED_EDGE('',*,*,#479,.F.);
#495=ORIENTED_EDGE('',*,*,#434,.T.);
#497=ORIENTED_EDGE('',*,*,#496,.F.);
#498=ORIENTED_EDGE('',*,*,#336,.F.);
#499=ORIENTED_EDGE('',*,*,#367,.T.);
#500=EDGE_LOOP('',(#491,#492,#493,#494,#495,#497,#498,#499));
#501=FACE_OUTER_BOUND('',#500,.F.);
#503=ORIENTED_EDGE('',*,*,#502,.F.);
#505=ORIENTED_EDGE('',*,*,#504,.F.);
#507=ORIENTED_EDGE('',*,*,#506,.T.);
#509=ORIENTED_EDGE('',*,*,#508,.T.);
#510=EDGE_LOOP('',(#503,#505,#507,#509));
#511=FACE_BOUND('',#510,.F.);
#513=CARTESIAN_POINT('',(1.5875E1,0.E0,6.35E0));
#514=DIRECTION('',(1.E0,0.E0,0.E0));
#515=DIRECTION('',(0.E0,0.E0,-1.E0));
#516=AXIS2_PLACEMENT_3D('',#513,#514,#515);
#517=PLANE('',#516);
#518=ORIENTED_EDGE('',*,*,#338,.F.);
#519=ORIENTED_EDGE('',*,*,#496,.T.);
#520=ORIENTED_EDGE('',*,*,#432,.T.);
#521=ORIENTED_EDGE('',*,*,#389,.F.);
#522=EDGE_LOOP('',(#518,#519,#520,#521));
#523=FACE_OUTER_BOUND('',#522,.F.);
#525=CARTESIAN_POINT('',(0.E0,4.2E0,0.E0));
#526=DIRECTION('',(0.E0,1.E0,0.E0));
#527=DIRECTION('',(1.E0,0.E0,0.E0));
#528=AXIS2_PLACEMENT_3D('',#525,#526,#527);
#529=PLANE('',#528);
#530=ORIENTED_EDGE('',*,*,#502,.T.);
#532=ORIENTED_EDGE('',*,*,#531,.F.);
#534=ORIENTED_EDGE('',*,*,#533,.F.);
#536=ORIENTED_EDGE('',*,*,#535,.F.);
#537=EDGE_LOOP('',(#530,#532,#534,#536));
#538=FACE_OUTER_BOUND('',#537,.F.);
#540=CARTESIAN_POINT('',(0.E0,4.2E0,0.E0));
#541=DIRECTION('',(0.E0,1.E0,0.E0));
#542=DIRECTION('',(1.E0,0.E0,0.E0));
#543=AXIS2_PLACEMENT_3D('',#540,#541,#542);
#544=PLANE('',#543);
#546=ORIENTED_EDGE('',*,*,#545,.F.);
#548=ORIENTED_EDGE('',*,*,#547,.F.);
#550=ORIENTED_EDGE('',*,*,#549,.F.);
#551=ORIENTED_EDGE('',*,*,#393,.F.);
#552=EDGE_LOOP('',(#546,#548,#550,#551));
#553=FACE_OUTER_BOUND('',#552,.F.);
#555=CARTESIAN_POINT('',(1.5E0,4.2E0,1.285E1));
#556=DIRECTION('',(1.E0,0.E0,0.E0));
#557=DIRECTION('',(0.E0,0.E0,-1.E0));
#558=AXIS2_PLACEMENT_3D('',#555,#556,#557);
#559=PLANE('',#558);
#560=ORIENTED_EDGE('',*,*,#508,.F.);
#562=ORIENTED_EDGE('',*,*,#561,.F.);
#564=ORIENTED_EDGE('',*,*,#563,.F.);
#565=ORIENTED_EDGE('',*,*,#531,.T.);
#566=EDGE_LOOP('',(#560,#562,#564,#565));
#567=FACE_OUTER_BOUND('',#566,.F.);
#569=CARTESIAN_POINT('',(1.5E0,4.2E0,1.285E1));
#570=DIRECTION('',(1.E0,0.E0,0.E0));
#571=DIRECTION('',(0.E0,0.E0,-1.E0));
#572=AXIS2_PLACEMENT_3D('',#569,#570,#571);
#573=PLANE('',#572);
#574=ORIENTED_EDGE('',*,*,#395,.T.);
#575=ORIENTED_EDGE('',*,*,#549,.T.);
#577=ORIENTED_EDGE('',*,*,#576,.T.);
#579=ORIENTED_EDGE('',*,*,#578,.F.);
#580=EDGE_LOOP('',(#574,#575,#577,#579));
#581=FACE_OUTER_BOUND('',#580,.F.);
#583=CARTESIAN_POINT('',(0.E0,4.1E0,0.E0));
#584=DIRECTION('',(0.E0,1.E0,0.E0));
#585=DIRECTION('',(1.E0,0.E0,0.E0));
#586=AXIS2_PLACEMENT_3D('',#583,#584,#585);
#587=PLANE('',#586);
#588=ORIENTED_EDGE('',*,*,#506,.F.);
#590=ORIENTED_EDGE('',*,*,#589,.T.);
#592=ORIENTED_EDGE('',*,*,#591,.T.);
#593=ORIENTED_EDGE('',*,*,#561,.T.);
#594=EDGE_LOOP('',(#588,#590,#592,#593));
#595=FACE_OUTER_BOUND('',#594,.F.);
#597=CARTESIAN_POINT('',(0.E0,4.1E0,0.E0));
#598=DIRECTION('',(0.E0,1.E0,0.E0));
#599=DIRECTION('',(1.E0,0.E0,0.E0));
#600=AXIS2_PLACEMENT_3D('',#597,#598,#599);
#601=PLANE('',#600);
#603=ORIENTED_EDGE('',*,*,#602,.T.);
#604=ORIENTED_EDGE('',*,*,#397,.T.);
#605=ORIENTED_EDGE('',*,*,#578,.T.);
#607=ORIENTED_EDGE('',*,*,#606,.T.);
#608=EDGE_LOOP('',(#603,#604,#605,#607));
#609=FACE_OUTER_BOUND('',#608,.F.);
#611=CARTESIAN_POINT('',(-1.5E0,4.2E0,-1.285E1));
#612=DIRECTION('',(-1.E0,0.E0,0.E0));
#613=DIRECTION('',(0.E0,0.E0,1.E0));
#614=AXIS2_PLACEMENT_3D('',#611,#612,#613);
#615=PLANE('',#614);
#616=ORIENTED_EDGE('',*,*,#504,.T.);
#617=ORIENTED_EDGE('',*,*,#535,.T.);
#619=ORIENTED_EDGE('',*,*,#618,.T.);
#620=ORIENTED_EDGE('',*,*,#589,.F.);
#621=EDGE_LOOP('',(#616,#617,#619,#620));
#622=FACE_OUTER_BOUND('',#621,.F.);
#624=CARTESIAN_POINT('',(-1.5E0,4.2E0,-1.285E1));
#625=DIRECTION('',(-1.E0,0.E0,0.E0));
#626=DIRECTION('',(0.E0,0.E0,1.E0));
#627=AXIS2_PLACEMENT_3D('',#624,#625,#626);
#628=PLANE('',#627);
#629=ORIENTED_EDGE('',*,*,#545,.T.);
#630=ORIENTED_EDGE('',*,*,#399,.F.);
#631=ORIENTED_EDGE('',*,*,#602,.F.);
#633=ORIENTED_EDGE('',*,*,#632,.F.);
#634=EDGE_LOOP('',(#629,#630,#631,#633));
#635=FACE_OUTER_BOUND('',#634,.F.);
#637=CARTESIAN_POINT('',(-1.5E0,4.2E0,1.285E1));
#638=DIRECTION('',(0.E0,0.E0,1.E0));
#639=DIRECTION('',(1.E0,0.E0,0.E0));
#640=AXIS2_PLACEMENT_3D('',#637,#638,#639);
#641=PLANE('',#640);
#642=ORIENTED_EDGE('',*,*,#533,.T.);
#643=ORIENTED_EDGE('',*,*,#563,.T.);
#644=ORIENTED_EDGE('',*,*,#591,.F.);
#645=ORIENTED_EDGE('',*,*,#618,.F.);
#646=EDGE_LOOP('',(#642,#643,#644,#645));
#647=FACE_OUTER_BOUND('',#646,.F.);
#649=CARTESIAN_POINT('',(1.5E0,4.2E0,-1.285E1));
#650=DIRECTION('',(0.E0,0.E0,-1.E0));
#651=DIRECTION('',(-1.E0,0.E0,0.E0));
#652=AXIS2_PLACEMENT_3D('',#649,#650,#651);
#653=PLANE('',#652);
#654=ORIENTED_EDGE('',*,*,#547,.T.);
#655=ORIENTED_EDGE('',*,*,#632,.T.);
#656=ORIENTED_EDGE('',*,*,#606,.F.);
#657=ORIENTED_EDGE('',*,*,#576,.F.);
#658=EDGE_LOOP('',(#654,#655,#656,#657));
#659=FACE_OUTER_BOUND('',#658,.F.);
#661=CARTESIAN_POINT('',(1.1125E1,3.17E0,0.E0));
#662=DIRECTION('',(0.E0,1.E0,0.E0));
#663=DIRECTION('',(1.E0,0.E0,0.E0));
#664=AXIS2_PLACEMENT_3D('',#661,#662,#663);
#665=CYLINDRICAL_SURFACE('',#664,2.1E0);
#666=ORIENTED_EDGE('',*,*,#344,.T.);
#668=ORIENTED_EDGE('',*,*,#667,.F.);
#669=ORIENTED_EDGE('',*,*,#438,.F.);
#671=ORIENTED_EDGE('',*,*,#670,.T.);
#672=EDGE_LOOP('',(#666,#668,#669,#671));
#673=FACE_OUTER_BOUND('',#672,.F.);
#675=CARTESIAN_POINT('',(1.1125E1,3.17E0,0.E0));
#676=DIRECTION('',(0.E0,1.E0,0.E0));
#677=DIRECTION('',(1.E0,0.E0,0.E0));
#678=AXIS2_PLACEMENT_3D('',#675,#676,#677);
#679=CYLINDRICAL_SURFACE('',#678,2.1E0);
#680=ORIENTED_EDGE('',*,*,#346,.T.);
#681=ORIENTED_EDGE('',*,*,#670,.F.);
#682=ORIENTED_EDGE('',*,*,#440,.F.);
#683=ORIENTED_EDGE('',*,*,#667,.T.);
#684=EDGE_LOOP('',(#680,#681,#682,#683));
#685=FACE_OUTER_BOUND('',#684,.F.);
#687=CARTESIAN_POINT('',(-1.1125E1,3.17E0,0.E0));
#688=DIRECTION('',(0.E0,1.E0,0.E0));
#689=DIRECTION('',(1.E0,0.E0,0.E0));
#690=AXIS2_PLACEMENT_3D('',#687,#688,#689);
#691=CYLINDRICAL_SURFACE('',#690,2.1E0);
#692=ORIENTED_EDGE('',*,*,#350,.T.);
#694=ORIENTED_EDGE('',*,*,#693,.F.);
#695=ORIENTED_EDGE('',*,*,#417,.F.);
#697=ORIENTED_EDGE('',*,*,#696,.T.);
#698=EDGE_LOOP('',(#692,#694,#695,#697));
#699=FACE_OUTER_BOUND('',#698,.F.);
#701=CARTESIAN_POINT('',(-1.1125E1,3.17E0,0.E0));
#702=DIRECTION('',(0.E0,1.E0,0.E0));
#703=DIRECTION('',(1.E0,0.E0,0.E0));
#704=AXIS2_PLACEMENT_3D('',#701,#702,#703);
#705=CYLINDRICAL_SURFACE('',#704,2.1E0);
#706=ORIENTED_EDGE('',*,*,#352,.T.);
#707=ORIENTED_EDGE('',*,*,#696,.F.);
#708=ORIENTED_EDGE('',*,*,#419,.F.);
#709=ORIENTED_EDGE('',*,*,#693,.T.);
#710=EDGE_LOOP('',(#706,#707,#708,#709));
#711=FACE_OUTER_BOUND('',#710,.F.);
#713=CLOSED_SHELL('',(#356,#371,#403,#423,#444,#458,#472,#485,#512,#524,#539,
#554,#568,#582,#596,#610,#623,#636,#648,#660,#674,#686,#700,#712));
#714=MANIFOLD_SOLID_BREP('',#713);
#716=DIMENSIONAL_EXPONENTS(0.E0,0.E0,0.E0,0.E0,0.E0,0.E0,0.E0);
#718=PLANE_ANGLE_MEASURE_WITH_UNIT(PLANE_ANGLE_MEASURE(1.745329251994E-2),#717);
#719=(CONVERSION_BASED_UNIT('DEGREE',#718)NAMED_UNIT(*)PLANE_ANGLE_UNIT());
#721=UNCERTAINTY_MEASURE_WITH_UNIT(LENGTH_MEASURE(1.714987984914E-3),#715,
'closure',
'Maximum model space distance between geometric entities at asserted connectivities');
#724=APPLICATION_CONTEXT(
'CONFIGURATION CONTROLLED 3D DESIGNS OF MECHANICAL PARTS AND ASSEMBLIES');
#725=APPLICATION_PROTOCOL_DEFINITION('international standard',
'config_control_design',1994,#724);
#726=DESIGN_CONTEXT('',#724,'design');
#727=MECHANICAL_CONTEXT('',#724,'mechanical');
#728=PRODUCT('CHF12545D','CHF12545D','NOT SPECIFIED',(#727));
#729=PRODUCT_DEFINITION_FORMATION_WITH_SPECIFIED_SOURCE('1','LAST_VERSION',#728,
.MADE.);
#733=PRODUCT_CATEGORY('part','');
#734=PRODUCT_RELATED_PRODUCT_CATEGORY('detail','',(#728));
#735=PRODUCT_CATEGORY_RELATIONSHIP('','',#733,#734);
#736=SECURITY_CLASSIFICATION_LEVEL('unclassified');
#737=SECURITY_CLASSIFICATION('','',#736);
#738=CC_DESIGN_SECURITY_CLASSIFICATION(#737,(#729));
#739=APPROVAL_STATUS('approved');
#740=APPROVAL(#739,'');
#741=CC_DESIGN_APPROVAL(#740,(#737,#729,#730));
#742=CALENDAR_DATE(112,20,8);
#743=COORDINATED_UNIVERSAL_TIME_OFFSET(7,0,.BEHIND.);
#744=LOCAL_TIME(9,27,1.1E1,#743);
#745=DATE_AND_TIME(#742,#744);
#746=APPROVAL_DATE_TIME(#745,#740);
#747=DATE_TIME_ROLE('creation_date');
#748=CC_DESIGN_DATE_AND_TIME_ASSIGNMENT(#745,#747,(#730));
#749=DATE_TIME_ROLE('classification_date');
#750=CC_DESIGN_DATE_AND_TIME_ASSIGNMENT(#745,#749,(#737));
#751=PERSON('UNSPECIFIED','UNSPECIFIED',$,$,$,$);
#752=ORGANIZATION('UNSPECIFIED','UNSPECIFIED','UNSPECIFIED');
#753=PERSON_AND_ORGANIZATION(#751,#752);
#754=APPROVAL_ROLE('approver');
#755=APPROVAL_PERSON_ORGANIZATION(#753,#740,#754);
#756=PERSON_AND_ORGANIZATION_ROLE('creator');
#757=CC_DESIGN_PERSON_AND_ORGANIZATION_ASSIGNMENT(#753,#756,(#729,#730));
#758=PERSON_AND_ORGANIZATION_ROLE('design_supplier');
#759=CC_DESIGN_PERSON_AND_ORGANIZATION_ASSIGNMENT(#753,#758,(#729));
#760=PERSON_AND_ORGANIZATION_ROLE('classification_officer');
#761=CC_DESIGN_PERSON_AND_ORGANIZATION_ASSIGNMENT(#753,#760,(#737));
#762=PERSON_AND_ORGANIZATION_ROLE('design_owner');
#763=CC_DESIGN_PERSON_AND_ORGANIZATION_ASSIGNMENT(#753,#762,(#728));
#21=CIRCLE('',#20,2.1E0);
#26=CIRCLE('',#25,2.1E0);
#31=CIRCLE('',#30,2.1E0);
#36=CIRCLE('',#35,2.1E0);
#101=CIRCLE('',#100,2.1E0);
#106=CIRCLE('',#105,2.1E0);
#111=CIRCLE('',#110,2.1E0);
#116=CIRCLE('',#115,2.1E0);
#334=EDGE_CURVE('',#251,#252,#4,.T.);
#336=EDGE_CURVE('',#252,#254,#8,.T.);
#338=EDGE_CURVE('',#254,#256,#12,.T.);
#340=EDGE_CURVE('',#256,#251,#16,.T.);
#344=EDGE_CURVE('',#311,#312,#21,.T.);
#346=EDGE_CURVE('',#312,#311,#26,.T.);
#350=EDGE_CURVE('',#315,#316,#31,.T.);
#352=EDGE_CURVE('',#316,#315,#36,.T.);
#356=ADVANCED_FACE('',(#343,#349,#355),#333,.F.);
#363=EDGE_CURVE('',#251,#259,#40,.T.);
#365=EDGE_CURVE('',#259,#260,#76,.T.);
#367=EDGE_CURVE('',#252,#260,#148,.T.);
#371=ADVANCED_FACE('',(#370),#361,.T.);
#377=EDGE_CURVE('',#264,#280,#88,.T.);
#379=EDGE_CURVE('',#280,#272,#44,.T.);
#381=EDGE_CURVE('',#272,#267,#128,.T.);
#383=EDGE_CURVE('',#276,#267,#120,.T.);
#385=EDGE_CURVE('',#276,#259,#80,.T.);
#389=EDGE_CURVE('',#256,#264,#48,.T.);
#393=EDGE_CURVE('',#306,#326,#52,.T.);
#395=EDGE_CURVE('',#328,#326,#56,.T.);
#397=EDGE_CURVE('',#308,#328,#60,.T.);
#399=EDGE_CURVE('',#308,#306,#64,.T.);
#403=ADVANCED_FACE('',(#392,#402),#376,.T.);
#409=EDGE_CURVE('',#275,#276,#68,.T.);
#411=EDGE_CURVE('',#260,#275,#72,.T.);
#417=EDGE_CURVE('',#323,#324,#111,.T.);
#419=EDGE_CURVE('',#324,#323,#116,.T.);
#423=ADVANCED_FACE('',(#416,#422),#408,.T.);
#429=EDGE_CURVE('',#279,#280,#84,.T.);
#432=EDGE_CURVE('',#263,#264,#92,.T.);
#434=EDGE_CURVE('',#279,#263,#96,.T.);
#438=EDGE_CURVE('',#319,#320,#101,.T.);
#440=EDGE_CURVE('',#320,#319,#106,.T.);
#444=ADVANCED_FACE('',(#437,#443),#428,.T.);
#452=EDGE_CURVE('',#267,#268,#124,.T.);
#454=EDGE_CURVE('',#275,#268,#144,.T.);
#458=ADVANCED_FACE('',(#457),#449,.T.);
#466=EDGE_CURVE('',#270,#272,#132,.T.);
#468=EDGE_CURVE('',#268,#270,#136,.T.);
#472=ADVANCED_FACE('',(#471),#463,.T.);
#479=EDGE_CURVE('',#279,#270,#140,.T.);
#485=ADVANCED_FACE('',(#484),#477,.T.);
#496=EDGE_CURVE('',#254,#263,#168,.T.);
#502=EDGE_CURVE('',#299,#300,#152,.T.);
#504=EDGE_CURVE('',#303,#299,#156,.T.);
#506=EDGE_CURVE('',#303,#304,#160,.T.);
#508=EDGE_CURVE('',#304,#300,#164,.T.);
#512=ADVANCED_FACE('',(#501,#511),#490,.T.);
#524=ADVANCED_FACE('',(#523),#517,.T.);
#531=EDGE_CURVE('',#284,#300,#172,.T.);
#533=EDGE_CURVE('',#283,#284,#176,.T.);
#535=EDGE_CURVE('',#299,#283,#180,.T.);
#539=ADVANCED_FACE('',(#538),#529,.T.);
#545=EDGE_CURVE('',#288,#306,#184,.T.);
#547=EDGE_CURVE('',#287,#288,#188,.T.);
#549=EDGE_CURVE('',#326,#287,#192,.T.);
#554=ADVANCED_FACE('',(#553),#544,.T.);
#561=EDGE_CURVE('',#292,#304,#208,.T.);
#563=EDGE_CURVE('',#284,#292,#196,.T.);
#568=ADVANCED_FACE('',(#567),#559,.T.);
#576=EDGE_CURVE('',#287,#295,#232,.T.);
#578=EDGE_CURVE('',#328,#295,#216,.T.);
#582=ADVANCED_FACE('',(#581),#573,.T.);
#589=EDGE_CURVE('',#303,#291,#200,.T.);
#591=EDGE_CURVE('',#291,#292,#204,.T.);
#596=ADVANCED_FACE('',(#595),#587,.F.);
#602=EDGE_CURVE('',#296,#308,#212,.T.);
#606=EDGE_CURVE('',#295,#296,#220,.T.);
#610=ADVANCED_FACE('',(#609),#601,.F.);
#618=EDGE_CURVE('',#283,#291,#228,.T.);
#623=ADVANCED_FACE('',(#622),#615,.T.);
#632=EDGE_CURVE('',#288,#296,#224,.T.);
#636=ADVANCED_FACE('',(#635),#628,.T.);
#648=ADVANCED_FACE('',(#647),#641,.T.);
#660=ADVANCED_FACE('',(#659),#653,.T.);
#667=EDGE_CURVE('',#320,#312,#240,.T.);
#670=EDGE_CURVE('',#319,#311,#236,.T.);
#674=ADVANCED_FACE('',(#673),#665,.F.);
#686=ADVANCED_FACE('',(#685),#679,.F.);
#693=EDGE_CURVE('',#324,#316,#248,.T.);
#696=EDGE_CURVE('',#323,#315,#244,.T.);
#700=ADVANCED_FACE('',(#699),#691,.F.);
#712=ADVANCED_FACE('',(#711),#705,.F.);
#715=(LENGTH_UNIT()NAMED_UNIT(*)SI_UNIT(.MILLI.,.METRE.));
#717=(NAMED_UNIT(*)PLANE_ANGLE_UNIT()SI_UNIT($,.RADIAN.));
#720=(NAMED_UNIT(*)SI_UNIT($,.STERADIAN.)SOLID_ANGLE_UNIT());
#722=(GEOMETRIC_REPRESENTATION_CONTEXT(3)GLOBAL_UNCERTAINTY_ASSIGNED_CONTEXT((
#721))GLOBAL_UNIT_ASSIGNED_CONTEXT((#715,#719,#720))REPRESENTATION_CONTEXT
('ID1','3'));
#723=ADVANCED_BREP_SHAPE_REPRESENTATION('',(#714),#722);
#730=PRODUCT_DEFINITION('design','',#729,#726);
#731=PRODUCT_DEFINITION_SHAPE('','SHAPE FOR CHF12545D.',#730);
#732=SHAPE_DEFINITION_REPRESENTATION(#731,#723);
ENDSEC;
END-ISO-10303-21;
