ISO-10303-21;
HEADER;
FILE_DESCRIPTION((''),'2;1');
FILE_NAME('CHF5225XBF','2012-08-31T',('ryans'),('Bourns, Inc.'),
'PRO/ENGINEER BY PARAMETRIC TECHNOLOGY CORPORATION, 2010100',
'PRO/ENGINEER BY PARAMETRIC TECHNOLOGY CORPORATION, 2010100','');
FILE_SCHEMA(('CONFIG_CONTROL_DESIGN'));
ENDSEC;
DATA;
#1=DIRECTION('',(0.E0,0.E0,1.E0));
#2=VECTOR('',#1,1.31E1);
#3=CARTESIAN_POINT('',(-3.175E0,0.E0,-6.55E0));
#4=LINE('',#3,#2);
#5=DIRECTION('',(1.E0,0.E0,0.E0));
#6=VECTOR('',#5,6.35E0);
#7=CARTESIAN_POINT('',(-3.175E0,0.E0,6.55E0));
#8=LINE('',#7,#6);
#9=DIRECTION('',(0.E0,0.E0,-1.E0));
#10=VECTOR('',#9,1.31E1);
#11=CARTESIAN_POINT('',(3.175E0,0.E0,6.55E0));
#12=LINE('',#11,#10);
#13=DIRECTION('',(-1.E0,0.E0,0.E0));
#14=VECTOR('',#13,6.35E0);
#15=CARTESIAN_POINT('',(3.175E0,0.E0,-6.55E0));
#16=LINE('',#15,#14);
#17=CARTESIAN_POINT('',(0.E0,0.E0,3.38E0));
#18=DIRECTION('',(0.E0,1.E0,0.E0));
#19=DIRECTION('',(1.E0,0.E0,0.E0));
#20=AXIS2_PLACEMENT_3D('',#17,#18,#19);
#22=CARTESIAN_POINT('',(0.E0,0.E0,3.38E0));
#23=DIRECTION('',(0.E0,1.E0,0.E0));
#24=DIRECTION('',(-1.E0,0.E0,0.E0));
#25=AXIS2_PLACEMENT_3D('',#22,#23,#24);
#27=DIRECTION('',(0.E0,1.E0,0.E0));
#28=VECTOR('',#27,4.E0);
#29=CARTESIAN_POINT('',(3.175E0,0.E0,-6.55E0));
#30=LINE('',#29,#28);
#31=DIRECTION('',(0.E0,-1.E0,0.E0));
#32=VECTOR('',#31,4.E0);
#33=CARTESIAN_POINT('',(-3.175E0,4.E0,-6.55E0));
#34=LINE('',#33,#32);
#35=DIRECTION('',(0.E0,1.E0,0.E0));
#36=VECTOR('',#35,1.E0);
#37=CARTESIAN_POINT('',(3.175E0,3.E0,2.E-1));
#38=LINE('',#37,#36);
#39=DIRECTION('',(0.E0,1.E0,0.E0));
#40=VECTOR('',#39,3.E0);
#41=CARTESIAN_POINT('',(3.175E0,0.E0,6.55E0));
#42=LINE('',#41,#40);
#43=DIRECTION('',(0.E0,0.E0,-1.E0));
#44=VECTOR('',#43,1.5E0);
#45=CARTESIAN_POINT('',(3.175E0,3.75E0,-2.7E0));
#46=LINE('',#45,#44);
#47=DIRECTION('',(0.E0,1.E0,0.E0));
#48=VECTOR('',#47,1.E-1);
#49=CARTESIAN_POINT('',(3.175E0,3.65E0,-2.7E0));
#50=LINE('',#49,#48);
#51=DIRECTION('',(0.E0,0.E0,-1.E0));
#52=VECTOR('',#51,1.5E0);
#53=CARTESIAN_POINT('',(3.175E0,3.65E0,-2.7E0));
#54=LINE('',#53,#52);
#55=DIRECTION('',(0.E0,1.E0,0.E0));
#56=VECTOR('',#55,1.E-1);
#57=CARTESIAN_POINT('',(3.175E0,3.65E0,-4.2E0));
#58=LINE('',#57,#56);
#59=DIRECTION('',(1.E0,0.E0,0.E0));
#60=VECTOR('',#59,6.35E0);
#61=CARTESIAN_POINT('',(-3.175E0,3.E0,2.E-1));
#62=LINE('',#61,#60);
#63=DIRECTION('',(0.E0,0.E0,-1.E0));
#64=VECTOR('',#63,6.35E0);
#65=CARTESIAN_POINT('',(3.175E0,3.E0,6.55E0));
#66=LINE('',#65,#64);
#67=DIRECTION('',(1.E0,0.E0,0.E0));
#68=VECTOR('',#67,6.35E0);
#69=CARTESIAN_POINT('',(-3.175E0,3.E0,6.55E0));
#70=LINE('',#69,#68);
#71=DIRECTION('',(0.E0,0.E0,1.E0));
#72=VECTOR('',#71,6.35E0);
#73=CARTESIAN_POINT('',(-3.175E0,3.E0,2.E-1));
#74=LINE('',#73,#72);
#75=CARTESIAN_POINT('',(0.E0,3.E0,3.38E0));
#76=DIRECTION('',(0.E0,1.E0,0.E0));
#77=DIRECTION('',(1.E0,0.E0,0.E0));
#78=AXIS2_PLACEMENT_3D('',#75,#76,#77);
#80=CARTESIAN_POINT('',(0.E0,3.E0,3.38E0));
#81=DIRECTION('',(0.E0,1.E0,0.E0));
#82=DIRECTION('',(-1.E0,0.E0,0.E0));
#83=AXIS2_PLACEMENT_3D('',#80,#81,#82);
#85=DIRECTION('',(0.E0,1.E0,0.E0));
#86=VECTOR('',#85,1.E0);
#87=CARTESIAN_POINT('',(-3.175E0,3.E0,2.E-1));
#88=LINE('',#87,#86);
#89=DIRECTION('',(0.E0,0.E0,1.E0));
#90=VECTOR('',#89,6.75E0);
#91=CARTESIAN_POINT('',(-3.175E0,4.E0,-6.55E0));
#92=LINE('',#91,#90);
#93=DIRECTION('',(-1.E0,0.E0,0.E0));
#94=VECTOR('',#93,6.35E0);
#95=CARTESIAN_POINT('',(3.175E0,4.E0,-6.55E0));
#96=LINE('',#95,#94);
#97=DIRECTION('',(0.E0,0.E0,-1.E0));
#98=VECTOR('',#97,6.75E0);
#99=CARTESIAN_POINT('',(3.175E0,4.E0,2.E-1));
#100=LINE('',#99,#98);
#101=DIRECTION('',(1.E0,0.E0,0.E0));
#102=VECTOR('',#101,6.35E0);
#103=CARTESIAN_POINT('',(-3.175E0,4.E0,2.E-1));
#104=LINE('',#103,#102);
#105=DIRECTION('',(0.E0,1.E0,0.E0));
#106=VECTOR('',#105,3.E0);
#107=CARTESIAN_POINT('',(-3.175E0,0.E0,6.55E0));
#108=LINE('',#107,#106);
#109=DIRECTION('',(0.E0,-1.E0,0.E0));
#110=VECTOR('',#109,3.E0);
#111=CARTESIAN_POINT('',(1.5E0,3.E0,3.38E0));
#112=LINE('',#111,#110);
#113=DIRECTION('',(0.E0,-1.E0,0.E0));
#114=VECTOR('',#113,3.E0);
#115=CARTESIAN_POINT('',(-1.5E0,3.E0,3.38E0));
#116=LINE('',#115,#114);
#117=DIRECTION('',(-1.E0,0.E0,0.E0));
#118=VECTOR('',#117,6.5E0);
#119=CARTESIAN_POINT('',(9.675E0,3.75E0,-4.2E0));
#120=LINE('',#119,#118);
#121=DIRECTION('',(0.E0,0.E0,-1.E0));
#122=VECTOR('',#121,1.5E0);
#123=CARTESIAN_POINT('',(9.675E0,3.75E0,-2.7E0));
#124=LINE('',#123,#122);
#125=DIRECTION('',(1.E0,0.E0,0.E0));
#126=VECTOR('',#125,6.5E0);
#127=CARTESIAN_POINT('',(3.175E0,3.75E0,-2.7E0));
#128=LINE('',#127,#126);
#129=DIRECTION('',(0.E0,-1.E0,0.E0));
#130=VECTOR('',#129,1.E-1);
#131=CARTESIAN_POINT('',(9.675E0,3.75E0,-4.2E0));
#132=LINE('',#131,#130);
#133=DIRECTION('',(1.E0,0.E0,0.E0));
#134=VECTOR('',#133,6.5E0);
#135=CARTESIAN_POINT('',(3.175E0,3.65E0,-2.7E0));
#136=LINE('',#135,#134);
#137=DIRECTION('',(0.E0,0.E0,-1.E0));
#138=VECTOR('',#137,1.5E0);
#139=CARTESIAN_POINT('',(9.675E0,3.65E0,-2.7E0));
#140=LINE('',#139,#138);
#141=DIRECTION('',(-1.E0,0.E0,0.E0));
#142=VECTOR('',#141,6.5E0);
#143=CARTESIAN_POINT('',(9.675E0,3.65E0,-4.2E0));
#144=LINE('',#143,#142);
#145=DIRECTION('',(0.E0,-1.E0,0.E0));
#146=VECTOR('',#145,1.E-1);
#147=CARTESIAN_POINT('',(9.675E0,3.75E0,-2.7E0));
#148=LINE('',#147,#146);
#149=CARTESIAN_POINT('',(-3.175E0,0.E0,-6.55E0));
#150=CARTESIAN_POINT('',(-3.175E0,0.E0,6.55E0));
#151=VERTEX_POINT('',#149);
#152=VERTEX_POINT('',#150);
#153=CARTESIAN_POINT('',(3.175E0,0.E0,6.55E0));
#154=VERTEX_POINT('',#153);
#155=CARTESIAN_POINT('',(3.175E0,0.E0,-6.55E0));
#156=VERTEX_POINT('',#155);
#157=CARTESIAN_POINT('',(-3.175E0,3.E0,6.55E0));
#158=CARTESIAN_POINT('',(3.175E0,3.E0,6.55E0));
#159=VERTEX_POINT('',#157);
#160=VERTEX_POINT('',#158);
#161=CARTESIAN_POINT('',(-3.175E0,4.E0,-6.55E0));
#162=CARTESIAN_POINT('',(-3.175E0,4.E0,2.E-1));
#163=VERTEX_POINT('',#161);
#164=VERTEX_POINT('',#162);
#165=CARTESIAN_POINT('',(3.175E0,4.E0,2.E-1));
#166=VERTEX_POINT('',#165);
#167=CARTESIAN_POINT('',(3.175E0,4.E0,-6.55E0));
#168=VERTEX_POINT('',#167);
#169=CARTESIAN_POINT('',(-3.175E0,3.E0,2.E-1));
#170=CARTESIAN_POINT('',(3.175E0,3.E0,2.E-1));
#171=VERTEX_POINT('',#169);
#172=VERTEX_POINT('',#170);
#173=CARTESIAN_POINT('',(1.5E0,0.E0,3.38E0));
#174=CARTESIAN_POINT('',(-1.5E0,0.E0,3.38E0));
#175=VERTEX_POINT('',#173);
#176=VERTEX_POINT('',#174);
#177=CARTESIAN_POINT('',(1.5E0,3.E0,3.38E0));
#178=CARTESIAN_POINT('',(-1.5E0,3.E0,3.38E0));
#179=VERTEX_POINT('',#177);
#180=VERTEX_POINT('',#178);
#181=CARTESIAN_POINT('',(9.675E0,3.75E0,-2.7E0));
#182=CARTESIAN_POINT('',(9.675E0,3.75E0,-4.2E0));
#183=VERTEX_POINT('',#181);
#184=VERTEX_POINT('',#182);
#185=CARTESIAN_POINT('',(9.675E0,3.65E0,-2.7E0));
#186=CARTESIAN_POINT('',(9.675E0,3.65E0,-4.2E0));
#187=VERTEX_POINT('',#185);
#188=VERTEX_POINT('',#186);
#189=CARTESIAN_POINT('',(3.175E0,3.75E0,-2.7E0));
#190=CARTESIAN_POINT('',(3.175E0,3.75E0,-4.2E0));
#191=VERTEX_POINT('',#189);
#192=VERTEX_POINT('',#190);
#193=CARTESIAN_POINT('',(3.175E0,3.65E0,-2.7E0));
#194=CARTESIAN_POINT('',(3.175E0,3.65E0,-4.2E0));
#195=VERTEX_POINT('',#193);
#196=VERTEX_POINT('',#194);
#197=CARTESIAN_POINT('',(0.E0,0.E0,0.E0));
#198=DIRECTION('',(0.E0,1.E0,0.E0));
#199=DIRECTION('',(1.E0,0.E0,0.E0));
#200=AXIS2_PLACEMENT_3D('',#197,#198,#199);
#201=PLANE('',#200);
#203=ORIENTED_EDGE('',*,*,#202,.T.);
#205=ORIENTED_EDGE('',*,*,#204,.T.);
#207=ORIENTED_EDGE('',*,*,#206,.T.);
#209=ORIENTED_EDGE('',*,*,#208,.T.);
#210=EDGE_LOOP('',(#203,#205,#207,#209));
#211=FACE_OUTER_BOUND('',#210,.F.);
#213=ORIENTED_EDGE('',*,*,#212,.F.);
#215=ORIENTED_EDGE('',*,*,#214,.F.);
#216=EDGE_LOOP('',(#213,#215));
#217=FACE_BOUND('',#216,.F.);
#219=CARTESIAN_POINT('',(-3.175E0,0.E0,-6.55E0));
#220=DIRECTION('',(-1.E0,0.E0,0.E0));
#221=DIRECTION('',(0.E0,0.E0,1.E0));
#222=AXIS2_PLACEMENT_3D('',#219,#220,#221);
#223=PLANE('',#222);
#225=ORIENTED_EDGE('',*,*,#224,.F.);
#227=ORIENTED_EDGE('',*,*,#226,.T.);
#229=ORIENTED_EDGE('',*,*,#228,.F.);
#231=ORIENTED_EDGE('',*,*,#230,.T.);
#233=ORIENTED_EDGE('',*,*,#232,.F.);
#234=ORIENTED_EDGE('',*,*,#202,.F.);
#235=EDGE_LOOP('',(#225,#227,#229,#231,#233,#234));
#236=FACE_OUTER_BOUND('',#235,.F.);
#238=CARTESIAN_POINT('',(3.175E0,0.E0,-6.55E0));
#239=DIRECTION('',(0.E0,0.E0,-1.E0));
#240=DIRECTION('',(-1.E0,0.E0,0.E0));
#241=AXIS2_PLACEMENT_3D('',#238,#239,#240);
#242=PLANE('',#241);
#244=ORIENTED_EDGE('',*,*,#243,.T.);
#246=ORIENTED_EDGE('',*,*,#245,.T.);
#247=ORIENTED_EDGE('',*,*,#224,.T.);
#248=ORIENTED_EDGE('',*,*,#208,.F.);
#249=EDGE_LOOP('',(#244,#246,#247,#248));
#250=FACE_OUTER_BOUND('',#249,.F.);
#252=CARTESIAN_POINT('',(3.175E0,0.E0,6.55E0));
#253=DIRECTION('',(1.E0,0.E0,0.E0));
#254=DIRECTION('',(0.E0,0.E0,-1.E0));
#255=AXIS2_PLACEMENT_3D('',#252,#253,#254);
#256=PLANE('',#255);
#258=ORIENTED_EDGE('',*,*,#257,.T.);
#260=ORIENTED_EDGE('',*,*,#259,.T.);
#262=ORIENTED_EDGE('',*,*,#261,.T.);
#263=ORIENTED_EDGE('',*,*,#243,.F.);
#264=ORIENTED_EDGE('',*,*,#206,.F.);
#266=ORIENTED_EDGE('',*,*,#265,.T.);
#267=EDGE_LOOP('',(#258,#260,#262,#263,#264,#266));
#268=FACE_OUTER_BOUND('',#267,.F.);
#270=ORIENTED_EDGE('',*,*,#269,.F.);
#272=ORIENTED_EDGE('',*,*,#271,.F.);
#274=ORIENTED_EDGE('',*,*,#273,.T.);
#276=ORIENTED_EDGE('',*,*,#275,.T.);
#277=EDGE_LOOP('',(#270,#272,#274,#276));
#278=FACE_BOUND('',#277,.F.);
#280=CARTESIAN_POINT('',(0.E0,3.E0,0.E0));
#281=DIRECTION('',(0.E0,1.E0,0.E0));
#282=DIRECTION('',(1.E0,0.E0,0.E0));
#283=AXIS2_PLACEMENT_3D('',#280,#281,#282);
#284=PLANE('',#283);
#286=ORIENTED_EDGE('',*,*,#285,.T.);
#287=ORIENTED_EDGE('',*,*,#257,.F.);
#289=ORIENTED_EDGE('',*,*,#288,.F.);
#290=ORIENTED_EDGE('',*,*,#230,.F.);
#291=EDGE_LOOP('',(#286,#287,#289,#290));
#292=FACE_OUTER_BOUND('',#291,.F.);
#294=ORIENTED_EDGE('',*,*,#293,.T.);
#296=ORIENTED_EDGE('',*,*,#295,.T.);
#297=EDGE_LOOP('',(#294,#296));
#298=FACE_BOUND('',#297,.F.);
#300=CARTESIAN_POINT('',(-3.175E0,0.E0,2.E-1));
#301=DIRECTION('',(0.E0,0.E0,1.E0));
#302=DIRECTION('',(1.E0,0.E0,0.E0));
#303=AXIS2_PLACEMENT_3D('',#300,#301,#302);
#304=PLANE('',#303);
#305=ORIENTED_EDGE('',*,*,#285,.F.);
#306=ORIENTED_EDGE('',*,*,#228,.T.);
#308=ORIENTED_EDGE('',*,*,#307,.T.);
#309=ORIENTED_EDGE('',*,*,#259,.F.);
#310=EDGE_LOOP('',(#305,#306,#308,#309));
#311=FACE_OUTER_BOUND('',#310,.F.);
#313=CARTESIAN_POINT('',(0.E0,4.E0,0.E0));
#314=DIRECTION('',(0.E0,1.E0,0.E0));
#315=DIRECTION('',(1.E0,0.E0,0.E0));
#316=AXIS2_PLACEMENT_3D('',#313,#314,#315);
#317=PLANE('',#316);
#318=ORIENTED_EDGE('',*,*,#226,.F.);
#319=ORIENTED_EDGE('',*,*,#245,.F.);
#320=ORIENTED_EDGE('',*,*,#261,.F.);
#321=ORIENTED_EDGE('',*,*,#307,.F.);
#322=EDGE_LOOP('',(#318,#319,#320,#321));
#323=FACE_OUTER_BOUND('',#322,.F.);
#325=CARTESIAN_POINT('',(-3.175E0,0.E0,6.55E0));
#326=DIRECTION('',(0.E0,0.E0,1.E0));
#327=DIRECTION('',(1.E0,0.E0,0.E0));
#328=AXIS2_PLACEMENT_3D('',#325,#326,#327);
#329=PLANE('',#328);
#330=ORIENTED_EDGE('',*,*,#204,.F.);
#331=ORIENTED_EDGE('',*,*,#232,.T.);
#332=ORIENTED_EDGE('',*,*,#288,.T.);
#333=ORIENTED_EDGE('',*,*,#265,.F.);
#334=EDGE_LOOP('',(#330,#331,#332,#333));
#335=FACE_OUTER_BOUND('',#334,.F.);
#337=CARTESIAN_POINT('',(0.E0,3.E0,3.38E0));
#338=DIRECTION('',(0.E0,1.E0,0.E0));
#339=DIRECTION('',(1.E0,0.E0,0.E0));
#340=AXIS2_PLACEMENT_3D('',#337,#338,#339);
#341=CYLINDRICAL_SURFACE('',#340,1.5E0);
#342=ORIENTED_EDGE('',*,*,#212,.T.);
#344=ORIENTED_EDGE('',*,*,#343,.F.);
#345=ORIENTED_EDGE('',*,*,#293,.F.);
#347=ORIENTED_EDGE('',*,*,#346,.T.);
#348=EDGE_LOOP('',(#342,#344,#345,#347));
#349=FACE_OUTER_BOUND('',#348,.F.);
#351=CARTESIAN_POINT('',(0.E0,3.E0,3.38E0));
#352=DIRECTION('',(0.E0,1.E0,0.E0));
#353=DIRECTION('',(1.E0,0.E0,0.E0));
#354=AXIS2_PLACEMENT_3D('',#351,#352,#353);
#355=CYLINDRICAL_SURFACE('',#354,1.5E0);
#356=ORIENTED_EDGE('',*,*,#214,.T.);
#357=ORIENTED_EDGE('',*,*,#346,.F.);
#358=ORIENTED_EDGE('',*,*,#295,.F.);
#359=ORIENTED_EDGE('',*,*,#343,.T.);
#360=EDGE_LOOP('',(#356,#357,#358,#359));
#361=FACE_OUTER_BOUND('',#360,.F.);
#363=CARTESIAN_POINT('',(0.E0,3.75E0,0.E0));
#364=DIRECTION('',(0.E0,1.E0,0.E0));
#365=DIRECTION('',(1.E0,0.E0,0.E0));
#366=AXIS2_PLACEMENT_3D('',#363,#364,#365);
#367=PLANE('',#366);
#368=ORIENTED_EDGE('',*,*,#269,.T.);
#370=ORIENTED_EDGE('',*,*,#369,.F.);
#372=ORIENTED_EDGE('',*,*,#371,.F.);
#374=ORIENTED_EDGE('',*,*,#373,.F.);
#375=EDGE_LOOP('',(#368,#370,#372,#374));
#376=FACE_OUTER_BOUND('',#375,.F.);
#378=CARTESIAN_POINT('',(9.675E0,3.75E0,-4.2E0));
#379=DIRECTION('',(0.E0,0.E0,-1.E0));
#380=DIRECTION('',(-1.E0,0.E0,0.E0));
#381=AXIS2_PLACEMENT_3D('',#378,#379,#380);
#382=PLANE('',#381);
#383=ORIENTED_EDGE('',*,*,#275,.F.);
#385=ORIENTED_EDGE('',*,*,#384,.F.);
#387=ORIENTED_EDGE('',*,*,#386,.F.);
#388=ORIENTED_EDGE('',*,*,#369,.T.);
#389=EDGE_LOOP('',(#383,#385,#387,#388));
#390=FACE_OUTER_BOUND('',#389,.F.);
#392=CARTESIAN_POINT('',(0.E0,3.65E0,0.E0));
#393=DIRECTION('',(0.E0,1.E0,0.E0));
#394=DIRECTION('',(1.E0,0.E0,0.E0));
#395=AXIS2_PLACEMENT_3D('',#392,#393,#394);
#396=PLANE('',#395);
#397=ORIENTED_EDGE('',*,*,#273,.F.);
#399=ORIENTED_EDGE('',*,*,#398,.T.);
#401=ORIENTED_EDGE('',*,*,#400,.T.);
#402=ORIENTED_EDGE('',*,*,#384,.T.);
#403=EDGE_LOOP('',(#397,#399,#401,#402));
#404=FACE_OUTER_BOUND('',#403,.F.);
#406=CARTESIAN_POINT('',(-4.681858471436E-1,3.75E0,-2.7E0));
#407=DIRECTION('',(0.E0,0.E0,1.E0));
#408=DIRECTION('',(1.E0,0.E0,0.E0));
#409=AXIS2_PLACEMENT_3D('',#406,#407,#408);
#410=PLANE('',#409);
#411=ORIENTED_EDGE('',*,*,#271,.T.);
#412=ORIENTED_EDGE('',*,*,#373,.T.);
#414=ORIENTED_EDGE('',*,*,#413,.T.);
#415=ORIENTED_EDGE('',*,*,#398,.F.);
#416=EDGE_LOOP('',(#411,#412,#414,#415));
#417=FACE_OUTER_BOUND('',#416,.F.);
#419=CARTESIAN_POINT('',(9.675E0,3.75E0,-2.7E0));
#420=DIRECTION('',(1.E0,0.E0,0.E0));
#421=DIRECTION('',(0.E0,0.E0,-1.E0));
#422=AXIS2_PLACEMENT_3D('',#419,#420,#421);
#423=PLANE('',#422);
#424=ORIENTED_EDGE('',*,*,#371,.T.);
#425=ORIENTED_EDGE('',*,*,#386,.T.);
#426=ORIENTED_EDGE('',*,*,#400,.F.);
#427=ORIENTED_EDGE('',*,*,#413,.F.);
#428=EDGE_LOOP('',(#424,#425,#426,#427));
#429=FACE_OUTER_BOUND('',#428,.F.);
#431=CLOSED_SHELL('',(#218,#237,#251,#279,#299,#312,#324,#336,#350,#362,#377,
#391,#405,#418,#430));
#432=MANIFOLD_SOLID_BREP('',#431);
#434=DIMENSIONAL_EXPONENTS(0.E0,0.E0,0.E0,0.E0,0.E0,0.E0,0.E0);
#436=PLANE_ANGLE_MEASURE_WITH_UNIT(PLANE_ANGLE_MEASURE(1.745329251994E-2),#435);
#437=(CONVERSION_BASED_UNIT('DEGREE',#436)NAMED_UNIT(*)PLANE_ANGLE_UNIT());
#439=UNCERTAINTY_MEASURE_WITH_UNIT(LENGTH_MEASURE(7.825176182392E-4),#433,
'closure',
'Maximum model space distance between geometric entities at asserted connectivities');
#442=APPLICATION_CONTEXT(
'CONFIGURATION CONTROLLED 3D DESIGNS OF MECHANICAL PARTS AND ASSEMBLIES');
#443=APPLICATION_PROTOCOL_DEFINITION('international standard',
'config_control_design',1994,#442);
#444=DESIGN_CONTEXT('',#442,'design');
#445=MECHANICAL_CONTEXT('',#442,'mechanical');
#446=PRODUCT('CHF5225XBF','CHF5225XBF','NOT SPECIFIED',(#445));
#447=PRODUCT_DEFINITION_FORMATION_WITH_SPECIFIED_SOURCE('3','LAST_VERSION',#446,
.MADE.);
#451=PRODUCT_CATEGORY('part','');
#452=PRODUCT_RELATED_PRODUCT_CATEGORY('detail','',(#446));
#453=PRODUCT_CATEGORY_RELATIONSHIP('','',#451,#452);
#454=SECURITY_CLASSIFICATION_LEVEL('unclassified');
#455=SECURITY_CLASSIFICATION('','',#454);
#456=CC_DESIGN_SECURITY_CLASSIFICATION(#455,(#447));
#457=APPROVAL_STATUS('approved');
#458=APPROVAL(#457,'');
#459=CC_DESIGN_APPROVAL(#458,(#455,#447,#448));
#460=CALENDAR_DATE(112,31,8);
#461=COORDINATED_UNIVERSAL_TIME_OFFSET(7,0,.BEHIND.);
#462=LOCAL_TIME(10,21,1.2E1,#461);
#463=DATE_AND_TIME(#460,#462);
#464=APPROVAL_DATE_TIME(#463,#458);
#465=DATE_TIME_ROLE('creation_date');
#466=CC_DESIGN_DATE_AND_TIME_ASSIGNMENT(#463,#465,(#448));
#467=DATE_TIME_ROLE('classification_date');
#468=CC_DESIGN_DATE_AND_TIME_ASSIGNMENT(#463,#467,(#455));
#469=PERSON('UNSPECIFIED','UNSPECIFIED',$,$,$,$);
#470=ORGANIZATION('UNSPECIFIED','UNSPECIFIED','UNSPECIFIED');
#471=PERSON_AND_ORGANIZATION(#469,#470);
#472=APPROVAL_ROLE('approver');
#473=APPROVAL_PERSON_ORGANIZATION(#471,#458,#472);
#474=PERSON_AND_ORGANIZATION_ROLE('creator');
#475=CC_DESIGN_PERSON_AND_ORGANIZATION_ASSIGNMENT(#471,#474,(#447,#448));
#476=PERSON_AND_ORGANIZATION_ROLE('design_supplier');
#477=CC_DESIGN_PERSON_AND_ORGANIZATION_ASSIGNMENT(#471,#476,(#447));
#478=PERSON_AND_ORGANIZATION_ROLE('classification_officer');
#479=CC_DESIGN_PERSON_AND_ORGANIZATION_ASSIGNMENT(#471,#478,(#455));
#480=PERSON_AND_ORGANIZATION_ROLE('design_owner');
#481=CC_DESIGN_PERSON_AND_ORGANIZATION_ASSIGNMENT(#471,#480,(#446));
#21=CIRCLE('',#20,1.5E0);
#26=CIRCLE('',#25,1.5E0);
#79=CIRCLE('',#78,1.5E0);
#84=CIRCLE('',#83,1.5E0);
#202=EDGE_CURVE('',#151,#152,#4,.T.);
#204=EDGE_CURVE('',#152,#154,#8,.T.);
#206=EDGE_CURVE('',#154,#156,#12,.T.);
#208=EDGE_CURVE('',#156,#151,#16,.T.);
#212=EDGE_CURVE('',#175,#176,#21,.T.);
#214=EDGE_CURVE('',#176,#175,#26,.T.);
#218=ADVANCED_FACE('',(#211,#217),#201,.F.);
#224=EDGE_CURVE('',#163,#151,#34,.T.);
#226=EDGE_CURVE('',#163,#164,#92,.T.);
#228=EDGE_CURVE('',#171,#164,#88,.T.);
#230=EDGE_CURVE('',#171,#159,#74,.T.);
#232=EDGE_CURVE('',#152,#159,#108,.T.);
#237=ADVANCED_FACE('',(#236),#223,.T.);
#243=EDGE_CURVE('',#156,#168,#30,.T.);
#245=EDGE_CURVE('',#168,#163,#96,.T.);
#251=ADVANCED_FACE('',(#250),#242,.T.);
#257=EDGE_CURVE('',#160,#172,#66,.T.);
#259=EDGE_CURVE('',#172,#166,#38,.T.);
#261=EDGE_CURVE('',#166,#168,#100,.T.);
#265=EDGE_CURVE('',#154,#160,#42,.T.);
#269=EDGE_CURVE('',#191,#192,#46,.T.);
#271=EDGE_CURVE('',#195,#191,#50,.T.);
#273=EDGE_CURVE('',#195,#196,#54,.T.);
#275=EDGE_CURVE('',#196,#192,#58,.T.);
#279=ADVANCED_FACE('',(#268,#278),#256,.T.);
#285=EDGE_CURVE('',#171,#172,#62,.T.);
#288=EDGE_CURVE('',#159,#160,#70,.T.);
#293=EDGE_CURVE('',#179,#180,#79,.T.);
#295=EDGE_CURVE('',#180,#179,#84,.T.);
#299=ADVANCED_FACE('',(#292,#298),#284,.T.);
#307=EDGE_CURVE('',#164,#166,#104,.T.);
#312=ADVANCED_FACE('',(#311),#304,.T.);
#324=ADVANCED_FACE('',(#323),#317,.T.);
#336=ADVANCED_FACE('',(#335),#329,.T.);
#343=EDGE_CURVE('',#180,#176,#116,.T.);
#346=EDGE_CURVE('',#179,#175,#112,.T.);
#350=ADVANCED_FACE('',(#349),#341,.F.);
#362=ADVANCED_FACE('',(#361),#355,.F.);
#369=EDGE_CURVE('',#184,#192,#120,.T.);
#371=EDGE_CURVE('',#183,#184,#124,.T.);
#373=EDGE_CURVE('',#191,#183,#128,.T.);
#377=ADVANCED_FACE('',(#376),#367,.T.);
#384=EDGE_CURVE('',#188,#196,#144,.T.);
#386=EDGE_CURVE('',#184,#188,#132,.T.);
#391=ADVANCED_FACE('',(#390),#382,.T.);
#398=EDGE_CURVE('',#195,#187,#136,.T.);
#400=EDGE_CURVE('',#187,#188,#140,.T.);
#405=ADVANCED_FACE('',(#404),#396,.F.);
#413=EDGE_CURVE('',#183,#187,#148,.T.);
#418=ADVANCED_FACE('',(#417),#410,.T.);
#430=ADVANCED_FACE('',(#429),#423,.T.);
#433=(LENGTH_UNIT()NAMED_UNIT(*)SI_UNIT(.MILLI.,.METRE.));
#435=(NAMED_UNIT(*)PLANE_ANGLE_UNIT()SI_UNIT($,.RADIAN.));
#438=(NAMED_UNIT(*)SI_UNIT($,.STERADIAN.)SOLID_ANGLE_UNIT());
#440=(GEOMETRIC_REPRESENTATION_CONTEXT(3)GLOBAL_UNCERTAINTY_ASSIGNED_CONTEXT((
#439))GLOBAL_UNIT_ASSIGNED_CONTEXT((#433,#437,#438))REPRESENTATION_CONTEXT
('ID1','3'));
#441=ADVANCED_BREP_SHAPE_REPRESENTATION('',(#432),#440);
#448=PRODUCT_DEFINITION('design','',#447,#444);
#449=PRODUCT_DEFINITION_SHAPE('','SHAPE FOR CHF5225XBF.',#448);
#450=SHAPE_DEFINITION_REPRESENTATION(#449,#441);
ENDSEC;
END-ISO-10303-21;
