ISO-10303-21;
HEADER;
FILE_DESCRIPTION((''),'2;1');
FILE_NAME('CHF8838XNF','2012-08-21T',('ryans'),('Bourns, Inc.'),
'PRO/ENGINEER BY PARAMETRIC TECHNOLOGY CORPORATION, 2010100',
'PRO/ENGINEER BY PARAMETRIC TECHNOLOGY CORPORATION, 2010100','');
FILE_SCHEMA(('CONFIG_CONTROL_DESIGN'));
ENDSEC;
DATA;
#1=CARTESIAN_POINT('',(7.11E0,0.E0,0.E0));
#2=DIRECTION('',(0.E0,-1.E0,0.E0));
#3=DIRECTION('',(1.E0,0.E0,0.E0));
#4=AXIS2_PLACEMENT_3D('',#1,#2,#3);
#6=CARTESIAN_POINT('',(7.11E0,0.E0,0.E0));
#7=DIRECTION('',(0.E0,-1.E0,0.E0));
#8=DIRECTION('',(-1.E0,0.E0,0.E0));
#9=AXIS2_PLACEMENT_3D('',#6,#7,#8);
#11=CARTESIAN_POINT('',(-7.11E0,0.E0,0.E0));
#12=DIRECTION('',(0.E0,-1.E0,0.E0));
#13=DIRECTION('',(1.E0,0.E0,0.E0));
#14=AXIS2_PLACEMENT_3D('',#11,#12,#13);
#16=CARTESIAN_POINT('',(-7.11E0,0.E0,0.E0));
#17=DIRECTION('',(0.E0,-1.E0,0.E0));
#18=DIRECTION('',(-1.E0,0.E0,0.E0));
#19=AXIS2_PLACEMENT_3D('',#16,#17,#18);
#21=DIRECTION('',(0.E0,0.E0,1.E0));
#22=VECTOR('',#21,9.53E0);
#23=CARTESIAN_POINT('',(-1.105E1,0.E0,-4.765E0));
#24=LINE('',#23,#22);
#25=DIRECTION('',(1.E0,0.E0,0.E0));
#26=VECTOR('',#25,2.21E1);
#27=CARTESIAN_POINT('',(-1.105E1,0.E0,4.765E0));
#28=LINE('',#27,#26);
#29=DIRECTION('',(0.E0,0.E0,-1.E0));
#30=VECTOR('',#29,9.53E0);
#31=CARTESIAN_POINT('',(1.105E1,0.E0,4.765E0));
#32=LINE('',#31,#30);
#33=DIRECTION('',(-1.E0,0.E0,0.E0));
#34=VECTOR('',#33,2.21E1);
#35=CARTESIAN_POINT('',(1.105E1,0.E0,-4.765E0));
#36=LINE('',#35,#34);
#37=DIRECTION('',(0.E0,1.E0,0.E0));
#38=VECTOR('',#37,1.57E0);
#39=CARTESIAN_POINT('',(8.86E0,0.E0,0.E0));
#40=LINE('',#39,#38);
#41=DIRECTION('',(0.E0,1.E0,0.E0));
#42=VECTOR('',#41,1.57E0);
#43=CARTESIAN_POINT('',(5.36E0,0.E0,0.E0));
#44=LINE('',#43,#42);
#45=CARTESIAN_POINT('',(7.11E0,1.57E0,0.E0));
#46=DIRECTION('',(0.E0,-1.E0,0.E0));
#47=DIRECTION('',(1.E0,0.E0,0.E0));
#48=AXIS2_PLACEMENT_3D('',#45,#46,#47);
#50=CARTESIAN_POINT('',(7.11E0,1.57E0,0.E0));
#51=DIRECTION('',(0.E0,-1.E0,0.E0));
#52=DIRECTION('',(-1.E0,0.E0,0.E0));
#53=AXIS2_PLACEMENT_3D('',#50,#51,#52);
#55=CARTESIAN_POINT('',(-7.11E0,1.57E0,0.E0));
#56=DIRECTION('',(0.E0,-1.E0,0.E0));
#57=DIRECTION('',(1.E0,0.E0,0.E0));
#58=AXIS2_PLACEMENT_3D('',#55,#56,#57);
#60=CARTESIAN_POINT('',(-7.11E0,1.57E0,0.E0));
#61=DIRECTION('',(0.E0,-1.E0,0.E0));
#62=DIRECTION('',(-1.E0,0.E0,0.E0));
#63=AXIS2_PLACEMENT_3D('',#60,#61,#62);
#65=DIRECTION('',(0.E0,0.E0,-1.E0));
#66=VECTOR('',#65,9.53E0);
#67=CARTESIAN_POINT('',(-3.175E0,1.57E0,4.765E0));
#68=LINE('',#67,#66);
#69=DIRECTION('',(1.E0,0.E0,0.E0));
#70=VECTOR('',#69,7.875E0);
#71=CARTESIAN_POINT('',(-1.105E1,1.57E0,4.765E0));
#72=LINE('',#71,#70);
#73=DIRECTION('',(0.E0,0.E0,1.E0));
#74=VECTOR('',#73,9.53E0);
#75=CARTESIAN_POINT('',(-1.105E1,1.57E0,-4.765E0));
#76=LINE('',#75,#74);
#77=DIRECTION('',(-1.E0,0.E0,0.E0));
#78=VECTOR('',#77,7.875E0);
#79=CARTESIAN_POINT('',(-3.175E0,1.57E0,-4.765E0));
#80=LINE('',#79,#78);
#81=DIRECTION('',(0.E0,0.E0,-1.E0));
#82=VECTOR('',#81,9.53E0);
#83=CARTESIAN_POINT('',(3.175E0,1.57E0,4.765E0));
#84=LINE('',#83,#82);
#85=DIRECTION('',(-1.E0,0.E0,0.E0));
#86=VECTOR('',#85,7.875E0);
#87=CARTESIAN_POINT('',(1.105E1,1.57E0,-4.765E0));
#88=LINE('',#87,#86);
#89=DIRECTION('',(0.E0,0.E0,-1.E0));
#90=VECTOR('',#89,9.53E0);
#91=CARTESIAN_POINT('',(1.105E1,1.57E0,4.765E0));
#92=LINE('',#91,#90);
#93=DIRECTION('',(1.E0,0.E0,0.E0));
#94=VECTOR('',#93,7.875E0);
#95=CARTESIAN_POINT('',(3.175E0,1.57E0,4.765E0));
#96=LINE('',#95,#94);
#97=DIRECTION('',(0.E0,1.E0,0.E0));
#98=VECTOR('',#97,1.57E0);
#99=CARTESIAN_POINT('',(-5.36E0,0.E0,0.E0));
#100=LINE('',#99,#98);
#101=DIRECTION('',(0.E0,1.E0,0.E0));
#102=VECTOR('',#101,1.57E0);
#103=CARTESIAN_POINT('',(-8.86E0,0.E0,0.E0));
#104=LINE('',#103,#102);
#105=DIRECTION('',(0.E0,1.E0,0.E0));
#106=VECTOR('',#105,1.2E0);
#107=CARTESIAN_POINT('',(-3.175E0,1.57E0,-4.765E0));
#108=LINE('',#107,#106);
#109=DIRECTION('',(0.E0,1.E0,0.E0));
#110=VECTOR('',#109,1.2E0);
#111=CARTESIAN_POINT('',(3.175E0,1.57E0,-4.765E0));
#112=LINE('',#111,#110);
#113=DIRECTION('',(0.E0,1.E0,0.E0));
#114=VECTOR('',#113,1.57E0);
#115=CARTESIAN_POINT('',(1.105E1,0.E0,-4.765E0));
#116=LINE('',#115,#114);
#117=DIRECTION('',(0.E0,1.E0,0.E0));
#118=VECTOR('',#117,1.2E0);
#119=CARTESIAN_POINT('',(3.175E0,1.57E0,4.765E0));
#120=LINE('',#119,#118);
#121=DIRECTION('',(0.E0,1.E0,0.E0));
#122=VECTOR('',#121,1.2E0);
#123=CARTESIAN_POINT('',(-3.175E0,1.57E0,4.765E0));
#124=LINE('',#123,#122);
#125=DIRECTION('',(0.E0,1.E0,0.E0));
#126=VECTOR('',#125,1.57E0);
#127=CARTESIAN_POINT('',(-1.105E1,0.E0,4.765E0));
#128=LINE('',#127,#126);
#129=DIRECTION('',(1.E0,0.E0,0.E0));
#130=VECTOR('',#129,1.5E0);
#131=CARTESIAN_POINT('',(-7.5E-1,2.47E0,4.765E0));
#132=LINE('',#131,#130);
#133=DIRECTION('',(0.E0,-1.E0,0.E0));
#134=VECTOR('',#133,1.E-1);
#135=CARTESIAN_POINT('',(7.5E-1,2.57E0,4.765E0));
#136=LINE('',#135,#134);
#137=DIRECTION('',(1.E0,0.E0,0.E0));
#138=VECTOR('',#137,1.5E0);
#139=CARTESIAN_POINT('',(-7.5E-1,2.57E0,4.765E0));
#140=LINE('',#139,#138);
#141=DIRECTION('',(0.E0,-1.E0,0.E0));
#142=VECTOR('',#141,1.E-1);
#143=CARTESIAN_POINT('',(-7.5E-1,2.57E0,4.765E0));
#144=LINE('',#143,#142);
#145=DIRECTION('',(0.E0,0.E0,1.E0));
#146=VECTOR('',#145,9.53E0);
#147=CARTESIAN_POINT('',(-3.175E0,2.77E0,-4.765E0));
#148=LINE('',#147,#146);
#149=DIRECTION('',(-1.E0,0.E0,0.E0));
#150=VECTOR('',#149,6.35E0);
#151=CARTESIAN_POINT('',(3.175E0,2.77E0,-4.765E0));
#152=LINE('',#151,#150);
#153=DIRECTION('',(0.E0,0.E0,-1.E0));
#154=VECTOR('',#153,9.53E0);
#155=CARTESIAN_POINT('',(3.175E0,2.77E0,4.765E0));
#156=LINE('',#155,#154);
#157=DIRECTION('',(1.E0,0.E0,0.E0));
#158=VECTOR('',#157,6.35E0);
#159=CARTESIAN_POINT('',(-3.175E0,2.77E0,4.765E0));
#160=LINE('',#159,#158);
#161=DIRECTION('',(0.E0,1.E0,0.E0));
#162=VECTOR('',#161,1.57E0);
#163=CARTESIAN_POINT('',(1.105E1,0.E0,4.765E0));
#164=LINE('',#163,#162);
#165=DIRECTION('',(0.E0,1.E0,0.E0));
#166=VECTOR('',#165,1.57E0);
#167=CARTESIAN_POINT('',(-1.105E1,0.E0,-4.765E0));
#168=LINE('',#167,#166);
#169=DIRECTION('',(0.E0,0.E0,1.E0));
#170=VECTOR('',#169,6.5E0);
#171=CARTESIAN_POINT('',(-7.5E-1,2.47E0,4.765E0));
#172=LINE('',#171,#170);
#173=DIRECTION('',(1.E0,0.E0,0.E0));
#174=VECTOR('',#173,1.5E0);
#175=CARTESIAN_POINT('',(-7.5E-1,2.47E0,1.1265E1));
#176=LINE('',#175,#174);
#177=DIRECTION('',(0.E0,0.E0,-1.E0));
#178=VECTOR('',#177,6.5E0);
#179=CARTESIAN_POINT('',(7.5E-1,2.47E0,1.1265E1));
#180=LINE('',#179,#178);
#181=DIRECTION('',(0.E0,0.E0,1.E0));
#182=VECTOR('',#181,6.5E0);
#183=CARTESIAN_POINT('',(-7.5E-1,2.57E0,4.765E0));
#184=LINE('',#183,#182);
#185=DIRECTION('',(0.E0,0.E0,-1.E0));
#186=VECTOR('',#185,6.5E0);
#187=CARTESIAN_POINT('',(7.5E-1,2.57E0,1.1265E1));
#188=LINE('',#187,#186);
#189=DIRECTION('',(1.E0,0.E0,0.E0));
#190=VECTOR('',#189,1.5E0);
#191=CARTESIAN_POINT('',(-7.5E-1,2.57E0,1.1265E1));
#192=LINE('',#191,#190);
#193=DIRECTION('',(0.E0,-1.E0,0.E0));
#194=VECTOR('',#193,1.E-1);
#195=CARTESIAN_POINT('',(7.5E-1,2.57E0,1.1265E1));
#196=LINE('',#195,#194);
#197=DIRECTION('',(0.E0,-1.E0,0.E0));
#198=VECTOR('',#197,1.E-1);
#199=CARTESIAN_POINT('',(-7.5E-1,2.57E0,1.1265E1));
#200=LINE('',#199,#198);
#201=CARTESIAN_POINT('',(-1.105E1,0.E0,-4.765E0));
#202=CARTESIAN_POINT('',(-1.105E1,0.E0,4.765E0));
#203=VERTEX_POINT('',#201);
#204=VERTEX_POINT('',#202);
#205=CARTESIAN_POINT('',(1.105E1,0.E0,4.765E0));
#206=VERTEX_POINT('',#205);
#207=CARTESIAN_POINT('',(1.105E1,0.E0,-4.765E0));
#208=VERTEX_POINT('',#207);
#209=CARTESIAN_POINT('',(-1.105E1,1.57E0,-4.765E0));
#210=CARTESIAN_POINT('',(-1.105E1,1.57E0,4.765E0));
#211=VERTEX_POINT('',#209);
#212=VERTEX_POINT('',#210);
#213=CARTESIAN_POINT('',(1.105E1,1.57E0,4.765E0));
#214=CARTESIAN_POINT('',(1.105E1,1.57E0,-4.765E0));
#215=VERTEX_POINT('',#213);
#216=VERTEX_POINT('',#214);
#217=CARTESIAN_POINT('',(8.86E0,0.E0,0.E0));
#218=CARTESIAN_POINT('',(5.36E0,0.E0,0.E0));
#219=VERTEX_POINT('',#217);
#220=VERTEX_POINT('',#218);
#221=CARTESIAN_POINT('',(-5.36E0,0.E0,0.E0));
#222=CARTESIAN_POINT('',(-8.86E0,0.E0,0.E0));
#223=VERTEX_POINT('',#221);
#224=VERTEX_POINT('',#222);
#225=CARTESIAN_POINT('',(8.86E0,1.57E0,0.E0));
#226=CARTESIAN_POINT('',(5.36E0,1.57E0,0.E0));
#227=VERTEX_POINT('',#225);
#228=VERTEX_POINT('',#226);
#229=CARTESIAN_POINT('',(-5.36E0,1.57E0,0.E0));
#230=CARTESIAN_POINT('',(-8.86E0,1.57E0,0.E0));
#231=VERTEX_POINT('',#229);
#232=VERTEX_POINT('',#230);
#233=CARTESIAN_POINT('',(-3.175E0,2.77E0,-4.765E0));
#234=CARTESIAN_POINT('',(-3.175E0,2.77E0,4.765E0));
#235=VERTEX_POINT('',#233);
#236=VERTEX_POINT('',#234);
#237=CARTESIAN_POINT('',(3.175E0,2.77E0,4.765E0));
#238=VERTEX_POINT('',#237);
#239=CARTESIAN_POINT('',(3.175E0,2.77E0,-4.765E0));
#240=VERTEX_POINT('',#239);
#241=CARTESIAN_POINT('',(-3.175E0,1.57E0,4.765E0));
#242=CARTESIAN_POINT('',(-3.175E0,1.57E0,-4.765E0));
#243=VERTEX_POINT('',#241);
#244=VERTEX_POINT('',#242);
#245=CARTESIAN_POINT('',(3.175E0,1.57E0,4.765E0));
#246=CARTESIAN_POINT('',(3.175E0,1.57E0,-4.765E0));
#247=VERTEX_POINT('',#245);
#248=VERTEX_POINT('',#246);
#249=CARTESIAN_POINT('',(-7.5E-1,2.57E0,1.1265E1));
#250=CARTESIAN_POINT('',(7.5E-1,2.57E0,1.1265E1));
#251=VERTEX_POINT('',#249);
#252=VERTEX_POINT('',#250);
#253=CARTESIAN_POINT('',(-7.5E-1,2.47E0,1.1265E1));
#254=CARTESIAN_POINT('',(7.5E-1,2.47E0,1.1265E1));
#255=VERTEX_POINT('',#253);
#256=VERTEX_POINT('',#254);
#257=CARTESIAN_POINT('',(-7.5E-1,2.47E0,4.765E0));
#258=CARTESIAN_POINT('',(7.5E-1,2.47E0,4.765E0));
#259=VERTEX_POINT('',#257);
#260=VERTEX_POINT('',#258);
#261=CARTESIAN_POINT('',(-7.5E-1,2.57E0,4.765E0));
#262=VERTEX_POINT('',#261);
#263=CARTESIAN_POINT('',(7.5E-1,2.57E0,4.765E0));
#264=VERTEX_POINT('',#263);
#265=CARTESIAN_POINT('',(0.E0,0.E0,0.E0));
#266=DIRECTION('',(0.E0,1.E0,0.E0));
#267=DIRECTION('',(1.E0,0.E0,0.E0));
#268=AXIS2_PLACEMENT_3D('',#265,#266,#267);
#269=PLANE('',#268);
#271=ORIENTED_EDGE('',*,*,#270,.T.);
#273=ORIENTED_EDGE('',*,*,#272,.T.);
#275=ORIENTED_EDGE('',*,*,#274,.T.);
#277=ORIENTED_EDGE('',*,*,#276,.T.);
#278=EDGE_LOOP('',(#271,#273,#275,#277));
#279=FACE_OUTER_BOUND('',#278,.F.);
#281=ORIENTED_EDGE('',*,*,#280,.T.);
#283=ORIENTED_EDGE('',*,*,#282,.T.);
#284=EDGE_LOOP('',(#281,#283));
#285=FACE_BOUND('',#284,.F.);
#287=ORIENTED_EDGE('',*,*,#286,.T.);
#289=ORIENTED_EDGE('',*,*,#288,.T.);
#290=EDGE_LOOP('',(#287,#289));
#291=FACE_BOUND('',#290,.F.);
#293=CARTESIAN_POINT('',(7.11E0,0.E0,0.E0));
#294=DIRECTION('',(0.E0,1.E0,0.E0));
#295=DIRECTION('',(1.E0,0.E0,0.E0));
#296=AXIS2_PLACEMENT_3D('',#293,#294,#295);
#297=CYLINDRICAL_SURFACE('',#296,1.75E0);
#298=ORIENTED_EDGE('',*,*,#286,.F.);
#300=ORIENTED_EDGE('',*,*,#299,.T.);
#302=ORIENTED_EDGE('',*,*,#301,.T.);
#304=ORIENTED_EDGE('',*,*,#303,.F.);
#305=EDGE_LOOP('',(#298,#300,#302,#304));
#306=FACE_OUTER_BOUND('',#305,.F.);
#308=CARTESIAN_POINT('',(7.11E0,0.E0,0.E0));
#309=DIRECTION('',(0.E0,1.E0,0.E0));
#310=DIRECTION('',(1.E0,0.E0,0.E0));
#311=AXIS2_PLACEMENT_3D('',#308,#309,#310);
#312=CYLINDRICAL_SURFACE('',#311,1.75E0);
#313=ORIENTED_EDGE('',*,*,#288,.F.);
#314=ORIENTED_EDGE('',*,*,#303,.T.);
#316=ORIENTED_EDGE('',*,*,#315,.T.);
#317=ORIENTED_EDGE('',*,*,#299,.F.);
#318=EDGE_LOOP('',(#313,#314,#316,#317));
#319=FACE_OUTER_BOUND('',#318,.F.);
#321=CARTESIAN_POINT('',(0.E0,1.57E0,0.E0));
#322=DIRECTION('',(0.E0,1.E0,0.E0));
#323=DIRECTION('',(1.E0,0.E0,0.E0));
#324=AXIS2_PLACEMENT_3D('',#321,#322,#323);
#325=PLANE('',#324);
#327=ORIENTED_EDGE('',*,*,#326,.F.);
#329=ORIENTED_EDGE('',*,*,#328,.F.);
#331=ORIENTED_EDGE('',*,*,#330,.F.);
#333=ORIENTED_EDGE('',*,*,#332,.F.);
#334=EDGE_LOOP('',(#327,#329,#331,#333));
#335=FACE_OUTER_BOUND('',#334,.F.);
#337=ORIENTED_EDGE('',*,*,#336,.F.);
#339=ORIENTED_EDGE('',*,*,#338,.F.);
#340=EDGE_LOOP('',(#337,#339));
#341=FACE_BOUND('',#340,.F.);
#343=CARTESIAN_POINT('',(0.E0,1.57E0,0.E0));
#344=DIRECTION('',(0.E0,1.E0,0.E0));
#345=DIRECTION('',(1.E0,0.E0,0.E0));
#346=AXIS2_PLACEMENT_3D('',#343,#344,#345);
#347=PLANE('',#346);
#349=ORIENTED_EDGE('',*,*,#348,.T.);
#351=ORIENTED_EDGE('',*,*,#350,.F.);
#353=ORIENTED_EDGE('',*,*,#352,.F.);
#355=ORIENTED_EDGE('',*,*,#354,.F.);
#356=EDGE_LOOP('',(#349,#351,#353,#355));
#357=FACE_OUTER_BOUND('',#356,.F.);
#358=ORIENTED_EDGE('',*,*,#301,.F.);
#359=ORIENTED_EDGE('',*,*,#315,.F.);
#360=EDGE_LOOP('',(#358,#359));
#361=FACE_BOUND('',#360,.F.);
#363=CARTESIAN_POINT('',(-7.11E0,0.E0,0.E0));
#364=DIRECTION('',(0.E0,1.E0,0.E0));
#365=DIRECTION('',(1.E0,0.E0,0.E0));
#366=AXIS2_PLACEMENT_3D('',#363,#364,#365);
#367=CYLINDRICAL_SURFACE('',#366,1.75E0);
#368=ORIENTED_EDGE('',*,*,#280,.F.);
#370=ORIENTED_EDGE('',*,*,#369,.T.);
#371=ORIENTED_EDGE('',*,*,#336,.T.);
#373=ORIENTED_EDGE('',*,*,#372,.F.);
#374=EDGE_LOOP('',(#368,#370,#371,#373));
#375=FACE_OUTER_BOUND('',#374,.F.);
#377=CARTESIAN_POINT('',(-7.11E0,0.E0,0.E0));
#378=DIRECTION('',(0.E0,1.E0,0.E0));
#379=DIRECTION('',(1.E0,0.E0,0.E0));
#380=AXIS2_PLACEMENT_3D('',#377,#378,#379);
#381=CYLINDRICAL_SURFACE('',#380,1.75E0);
#382=ORIENTED_EDGE('',*,*,#282,.F.);
#383=ORIENTED_EDGE('',*,*,#372,.T.);
#384=ORIENTED_EDGE('',*,*,#338,.T.);
#385=ORIENTED_EDGE('',*,*,#369,.F.);
#386=EDGE_LOOP('',(#382,#383,#384,#385));
#387=FACE_OUTER_BOUND('',#386,.F.);
#389=CARTESIAN_POINT('',(-3.175E0,0.E0,-4.765E0));
#390=DIRECTION('',(-1.E0,0.E0,0.E0));
#391=DIRECTION('',(0.E0,0.E0,1.E0));
#392=AXIS2_PLACEMENT_3D('',#389,#390,#391);
#393=PLANE('',#392);
#394=ORIENTED_EDGE('',*,*,#326,.T.);
#396=ORIENTED_EDGE('',*,*,#395,.T.);
#398=ORIENTED_EDGE('',*,*,#397,.T.);
#400=ORIENTED_EDGE('',*,*,#399,.F.);
#401=EDGE_LOOP('',(#394,#396,#398,#400));
#402=FACE_OUTER_BOUND('',#401,.F.);
#404=CARTESIAN_POINT('',(1.105E1,0.E0,-4.765E0));
#405=DIRECTION('',(0.E0,0.E0,-1.E0));
#406=DIRECTION('',(-1.E0,0.E0,0.E0));
#407=AXIS2_PLACEMENT_3D('',#404,#405,#406);
#408=PLANE('',#407);
#409=ORIENTED_EDGE('',*,*,#350,.T.);
#411=ORIENTED_EDGE('',*,*,#410,.T.);
#413=ORIENTED_EDGE('',*,*,#412,.T.);
#414=ORIENTED_EDGE('',*,*,#395,.F.);
#415=ORIENTED_EDGE('',*,*,#332,.T.);
#417=ORIENTED_EDGE('',*,*,#416,.F.);
#418=ORIENTED_EDGE('',*,*,#276,.F.);
#420=ORIENTED_EDGE('',*,*,#419,.T.);
#421=EDGE_LOOP('',(#409,#411,#413,#414,#415,#417,#418,#420));
#422=FACE_OUTER_BOUND('',#421,.F.);
#424=CARTESIAN_POINT('',(3.175E0,0.E0,4.765E0));
#425=DIRECTION('',(1.E0,0.E0,0.E0));
#426=DIRECTION('',(0.E0,0.E0,-1.E0));
#427=AXIS2_PLACEMENT_3D('',#424,#425,#426);
#428=PLANE('',#427);
#429=ORIENTED_EDGE('',*,*,#348,.F.);
#431=ORIENTED_EDGE('',*,*,#430,.T.);
#433=ORIENTED_EDGE('',*,*,#432,.T.);
#434=ORIENTED_EDGE('',*,*,#410,.F.);
#435=EDGE_LOOP('',(#429,#431,#433,#434));
#436=FACE_OUTER_BOUND('',#435,.F.);
#438=CARTESIAN_POINT('',(-1.105E1,0.E0,4.765E0));
#439=DIRECTION('',(0.E0,0.E0,1.E0));
#440=DIRECTION('',(1.E0,0.E0,0.E0));
#441=AXIS2_PLACEMENT_3D('',#438,#439,#440);
#442=PLANE('',#441);
#443=ORIENTED_EDGE('',*,*,#328,.T.);
#444=ORIENTED_EDGE('',*,*,#399,.T.);
#446=ORIENTED_EDGE('',*,*,#445,.T.);
#447=ORIENTED_EDGE('',*,*,#430,.F.);
#448=ORIENTED_EDGE('',*,*,#354,.T.);
#450=ORIENTED_EDGE('',*,*,#449,.F.);
#451=ORIENTED_EDGE('',*,*,#272,.F.);
#453=ORIENTED_EDGE('',*,*,#452,.T.);
#454=EDGE_LOOP('',(#443,#444,#446,#447,#448,#450,#451,#453));
#455=FACE_OUTER_BOUND('',#454,.F.);
#457=ORIENTED_EDGE('',*,*,#456,.T.);
#459=ORIENTED_EDGE('',*,*,#458,.F.);
#461=ORIENTED_EDGE('',*,*,#460,.F.);
#463=ORIENTED_EDGE('',*,*,#462,.T.);
#464=EDGE_LOOP('',(#457,#459,#461,#463));
#465=FACE_BOUND('',#464,.F.);
#467=CARTESIAN_POINT('',(0.E0,2.77E0,0.E0));
#468=DIRECTION('',(0.E0,1.E0,0.E0));
#469=DIRECTION('',(1.E0,0.E0,0.E0));
#470=AXIS2_PLACEMENT_3D('',#467,#468,#469);
#471=PLANE('',#470);
#472=ORIENTED_EDGE('',*,*,#397,.F.);
#473=ORIENTED_EDGE('',*,*,#412,.F.);
#474=ORIENTED_EDGE('',*,*,#432,.F.);
#475=ORIENTED_EDGE('',*,*,#445,.F.);
#476=EDGE_LOOP('',(#472,#473,#474,#475));
#477=FACE_OUTER_BOUND('',#476,.F.);
#479=CARTESIAN_POINT('',(1.105E1,0.E0,4.765E0));
#480=DIRECTION('',(1.E0,0.E0,0.E0));
#481=DIRECTION('',(0.E0,0.E0,-1.E0));
#482=AXIS2_PLACEMENT_3D('',#479,#480,#481);
#483=PLANE('',#482);
#484=ORIENTED_EDGE('',*,*,#274,.F.);
#485=ORIENTED_EDGE('',*,*,#449,.T.);
#486=ORIENTED_EDGE('',*,*,#352,.T.);
#487=ORIENTED_EDGE('',*,*,#419,.F.);
#488=EDGE_LOOP('',(#484,#485,#486,#487));
#489=FACE_OUTER_BOUND('',#488,.F.);
#491=CARTESIAN_POINT('',(-1.105E1,0.E0,-4.765E0));
#492=DIRECTION('',(-1.E0,0.E0,0.E0));
#493=DIRECTION('',(0.E0,0.E0,1.E0));
#494=AXIS2_PLACEMENT_3D('',#491,#492,#493);
#495=PLANE('',#494);
#496=ORIENTED_EDGE('',*,*,#270,.F.);
#497=ORIENTED_EDGE('',*,*,#416,.T.);
#498=ORIENTED_EDGE('',*,*,#330,.T.);
#499=ORIENTED_EDGE('',*,*,#452,.F.);
#500=EDGE_LOOP('',(#496,#497,#498,#499));
#501=FACE_OUTER_BOUND('',#500,.F.);
#503=CARTESIAN_POINT('',(0.E0,2.47E0,0.E0));
#504=DIRECTION('',(0.E0,1.E0,0.E0));
#505=DIRECTION('',(1.E0,0.E0,0.E0));
#506=AXIS2_PLACEMENT_3D('',#503,#504,#505);
#507=PLANE('',#506);
#508=ORIENTED_EDGE('',*,*,#456,.F.);
#510=ORIENTED_EDGE('',*,*,#509,.T.);
#512=ORIENTED_EDGE('',*,*,#511,.T.);
#514=ORIENTED_EDGE('',*,*,#513,.T.);
#515=EDGE_LOOP('',(#508,#510,#512,#514));
#516=FACE_OUTER_BOUND('',#515,.F.);
#518=CARTESIAN_POINT('',(-7.5E-1,2.57E0,4.064928370230E0));
#519=DIRECTION('',(-1.E0,0.E0,0.E0));
#520=DIRECTION('',(0.E0,0.E0,1.E0));
#521=AXIS2_PLACEMENT_3D('',#518,#519,#520);
#522=PLANE('',#521);
#523=ORIENTED_EDGE('',*,*,#462,.F.);
#525=ORIENTED_EDGE('',*,*,#524,.T.);
#527=ORIENTED_EDGE('',*,*,#526,.T.);
#528=ORIENTED_EDGE('',*,*,#509,.F.);
#529=EDGE_LOOP('',(#523,#525,#527,#528));
#530=FACE_OUTER_BOUND('',#529,.F.);
#532=CARTESIAN_POINT('',(0.E0,2.57E0,0.E0));
#533=DIRECTION('',(0.E0,1.E0,0.E0));
#534=DIRECTION('',(1.E0,0.E0,0.E0));
#535=AXIS2_PLACEMENT_3D('',#532,#533,#534);
#536=PLANE('',#535);
#537=ORIENTED_EDGE('',*,*,#524,.F.);
#538=ORIENTED_EDGE('',*,*,#460,.T.);
#540=ORIENTED_EDGE('',*,*,#539,.F.);
#542=ORIENTED_EDGE('',*,*,#541,.F.);
#543=EDGE_LOOP('',(#537,#538,#540,#542));
#544=FACE_OUTER_BOUND('',#543,.F.);
#546=CARTESIAN_POINT('',(7.5E-1,2.57E0,1.1265E1));
#547=DIRECTION('',(1.E0,0.E0,0.E0));
#548=DIRECTION('',(0.E0,0.E0,-1.E0));
#549=AXIS2_PLACEMENT_3D('',#546,#547,#548);
#550=PLANE('',#549);
#551=ORIENTED_EDGE('',*,*,#458,.T.);
#552=ORIENTED_EDGE('',*,*,#513,.F.);
#554=ORIENTED_EDGE('',*,*,#553,.F.);
#555=ORIENTED_EDGE('',*,*,#539,.T.);
#556=EDGE_LOOP('',(#551,#552,#554,#555));
#557=FACE_OUTER_BOUND('',#556,.F.);
#559=CARTESIAN_POINT('',(-7.5E-1,2.57E0,1.1265E1));
#560=DIRECTION('',(0.E0,0.E0,1.E0));
#561=DIRECTION('',(1.E0,0.E0,0.E0));
#562=AXIS2_PLACEMENT_3D('',#559,#560,#561);
#563=PLANE('',#562);
#564=ORIENTED_EDGE('',*,*,#541,.T.);
#565=ORIENTED_EDGE('',*,*,#553,.T.);
#566=ORIENTED_EDGE('',*,*,#511,.F.);
#567=ORIENTED_EDGE('',*,*,#526,.F.);
#568=EDGE_LOOP('',(#564,#565,#566,#567));
#569=FACE_OUTER_BOUND('',#568,.F.);
#571=CLOSED_SHELL('',(#292,#307,#320,#342,#362,#376,#388,#403,#423,#437,#466,
#478,#490,#502,#517,#531,#545,#558,#570));
#572=MANIFOLD_SOLID_BREP('',#571);
#574=DIMENSIONAL_EXPONENTS(0.E0,0.E0,0.E0,0.E0,0.E0,0.E0,0.E0);
#576=PLANE_ANGLE_MEASURE_WITH_UNIT(PLANE_ANGLE_MEASURE(1.745329251994E-2),#575);
#577=(CONVERSION_BASED_UNIT('DEGREE',#576)NAMED_UNIT(*)PLANE_ANGLE_UNIT());
#579=UNCERTAINTY_MEASURE_WITH_UNIT(LENGTH_MEASURE(1.143356077960E-3),#573,
'closure',
'Maximum model space distance between geometric entities at asserted connectivities');
#582=APPLICATION_CONTEXT(
'CONFIGURATION CONTROLLED 3D DESIGNS OF MECHANICAL PARTS AND ASSEMBLIES');
#583=APPLICATION_PROTOCOL_DEFINITION('international standard',
'config_control_design',1994,#582);
#584=DESIGN_CONTEXT('',#582,'design');
#585=MECHANICAL_CONTEXT('',#582,'mechanical');
#586=PRODUCT('CHF8838XNF','CHF8838XNF','NOT SPECIFIED',(#585));
#587=PRODUCT_DEFINITION_FORMATION_WITH_SPECIFIED_SOURCE('1','LAST_VERSION',#586,
.MADE.);
#591=PRODUCT_CATEGORY('part','');
#592=PRODUCT_RELATED_PRODUCT_CATEGORY('detail','',(#586));
#593=PRODUCT_CATEGORY_RELATIONSHIP('','',#591,#592);
#594=SECURITY_CLASSIFICATION_LEVEL('unclassified');
#595=SECURITY_CLASSIFICATION('','',#594);
#596=CC_DESIGN_SECURITY_CLASSIFICATION(#595,(#587));
#597=APPROVAL_STATUS('approved');
#598=APPROVAL(#597,'');
#599=CC_DESIGN_APPROVAL(#598,(#595,#587,#588));
#600=CALENDAR_DATE(112,21,8);
#601=COORDINATED_UNIVERSAL_TIME_OFFSET(7,0,.BEHIND.);
#602=LOCAL_TIME(16,20,6.E0,#601);
#603=DATE_AND_TIME(#600,#602);
#604=APPROVAL_DATE_TIME(#603,#598);
#605=DATE_TIME_ROLE('creation_date');
#606=CC_DESIGN_DATE_AND_TIME_ASSIGNMENT(#603,#605,(#588));
#607=DATE_TIME_ROLE('classification_date');
#608=CC_DESIGN_DATE_AND_TIME_ASSIGNMENT(#603,#607,(#595));
#609=PERSON('UNSPECIFIED','UNSPECIFIED',$,$,$,$);
#610=ORGANIZATION('UNSPECIFIED','UNSPECIFIED','UNSPECIFIED');
#611=PERSON_AND_ORGANIZATION(#609,#610);
#612=APPROVAL_ROLE('approver');
#613=APPROVAL_PERSON_ORGANIZATION(#611,#598,#612);
#614=PERSON_AND_ORGANIZATION_ROLE('creator');
#615=CC_DESIGN_PERSON_AND_ORGANIZATION_ASSIGNMENT(#611,#614,(#587,#588));
#616=PERSON_AND_ORGANIZATION_ROLE('design_supplier');
#617=CC_DESIGN_PERSON_AND_ORGANIZATION_ASSIGNMENT(#611,#616,(#587));
#618=PERSON_AND_ORGANIZATION_ROLE('classification_officer');
#619=CC_DESIGN_PERSON_AND_ORGANIZATION_ASSIGNMENT(#611,#618,(#595));
#620=PERSON_AND_ORGANIZATION_ROLE('design_owner');
#621=CC_DESIGN_PERSON_AND_ORGANIZATION_ASSIGNMENT(#611,#620,(#586));
#5=CIRCLE('',#4,1.75E0);
#10=CIRCLE('',#9,1.75E0);
#15=CIRCLE('',#14,1.75E0);
#20=CIRCLE('',#19,1.75E0);
#49=CIRCLE('',#48,1.75E0);
#54=CIRCLE('',#53,1.75E0);
#59=CIRCLE('',#58,1.75E0);
#64=CIRCLE('',#63,1.75E0);
#270=EDGE_CURVE('',#203,#204,#24,.T.);
#272=EDGE_CURVE('',#204,#206,#28,.T.);
#274=EDGE_CURVE('',#206,#208,#32,.T.);
#276=EDGE_CURVE('',#208,#203,#36,.T.);
#280=EDGE_CURVE('',#223,#224,#15,.T.);
#282=EDGE_CURVE('',#224,#223,#20,.T.);
#286=EDGE_CURVE('',#219,#220,#5,.T.);
#288=EDGE_CURVE('',#220,#219,#10,.T.);
#292=ADVANCED_FACE('',(#279,#285,#291),#269,.F.);
#299=EDGE_CURVE('',#219,#227,#40,.T.);
#301=EDGE_CURVE('',#227,#228,#49,.T.);
#303=EDGE_CURVE('',#220,#228,#44,.T.);
#307=ADVANCED_FACE('',(#306),#297,.F.);
#315=EDGE_CURVE('',#228,#227,#54,.T.);
#320=ADVANCED_FACE('',(#319),#312,.F.);
#326=EDGE_CURVE('',#243,#244,#68,.T.);
#328=EDGE_CURVE('',#212,#243,#72,.T.);
#330=EDGE_CURVE('',#211,#212,#76,.T.);
#332=EDGE_CURVE('',#244,#211,#80,.T.);
#336=EDGE_CURVE('',#231,#232,#59,.T.);
#338=EDGE_CURVE('',#232,#231,#64,.T.);
#342=ADVANCED_FACE('',(#335,#341),#325,.T.);
#348=EDGE_CURVE('',#247,#248,#84,.T.);
#350=EDGE_CURVE('',#216,#248,#88,.T.);
#352=EDGE_CURVE('',#215,#216,#92,.T.);
#354=EDGE_CURVE('',#247,#215,#96,.T.);
#362=ADVANCED_FACE('',(#357,#361),#347,.T.);
#369=EDGE_CURVE('',#223,#231,#100,.T.);
#372=EDGE_CURVE('',#224,#232,#104,.T.);
#376=ADVANCED_FACE('',(#375),#367,.F.);
#388=ADVANCED_FACE('',(#387),#381,.F.);
#395=EDGE_CURVE('',#244,#235,#108,.T.);
#397=EDGE_CURVE('',#235,#236,#148,.T.);
#399=EDGE_CURVE('',#243,#236,#124,.T.);
#403=ADVANCED_FACE('',(#402),#393,.T.);
#410=EDGE_CURVE('',#248,#240,#112,.T.);
#412=EDGE_CURVE('',#240,#235,#152,.T.);
#416=EDGE_CURVE('',#203,#211,#168,.T.);
#419=EDGE_CURVE('',#208,#216,#116,.T.);
#423=ADVANCED_FACE('',(#422),#408,.T.);
#430=EDGE_CURVE('',#247,#238,#120,.T.);
#432=EDGE_CURVE('',#238,#240,#156,.T.);
#437=ADVANCED_FACE('',(#436),#428,.T.);
#445=EDGE_CURVE('',#236,#238,#160,.T.);
#449=EDGE_CURVE('',#206,#215,#164,.T.);
#452=EDGE_CURVE('',#204,#212,#128,.T.);
#456=EDGE_CURVE('',#259,#260,#132,.T.);
#458=EDGE_CURVE('',#264,#260,#136,.T.);
#460=EDGE_CURVE('',#262,#264,#140,.T.);
#462=EDGE_CURVE('',#262,#259,#144,.T.);
#466=ADVANCED_FACE('',(#455,#465),#442,.T.);
#478=ADVANCED_FACE('',(#477),#471,.T.);
#490=ADVANCED_FACE('',(#489),#483,.T.);
#502=ADVANCED_FACE('',(#501),#495,.T.);
#509=EDGE_CURVE('',#259,#255,#172,.T.);
#511=EDGE_CURVE('',#255,#256,#176,.T.);
#513=EDGE_CURVE('',#256,#260,#180,.T.);
#517=ADVANCED_FACE('',(#516),#507,.F.);
#524=EDGE_CURVE('',#262,#251,#184,.T.);
#526=EDGE_CURVE('',#251,#255,#200,.T.);
#531=ADVANCED_FACE('',(#530),#522,.T.);
#539=EDGE_CURVE('',#252,#264,#188,.T.);
#541=EDGE_CURVE('',#251,#252,#192,.T.);
#545=ADVANCED_FACE('',(#544),#536,.T.);
#553=EDGE_CURVE('',#252,#256,#196,.T.);
#558=ADVANCED_FACE('',(#557),#550,.T.);
#570=ADVANCED_FACE('',(#569),#563,.T.);
#573=(LENGTH_UNIT()NAMED_UNIT(*)SI_UNIT(.MILLI.,.METRE.));
#575=(NAMED_UNIT(*)PLANE_ANGLE_UNIT()SI_UNIT($,.RADIAN.));
#578=(NAMED_UNIT(*)SI_UNIT($,.STERADIAN.)SOLID_ANGLE_UNIT());
#580=(GEOMETRIC_REPRESENTATION_CONTEXT(3)GLOBAL_UNCERTAINTY_ASSIGNED_CONTEXT((
#579))GLOBAL_UNIT_ASSIGNED_CONTEXT((#573,#577,#578))REPRESENTATION_CONTEXT
('ID1','3'));
#581=ADVANCED_BREP_SHAPE_REPRESENTATION('',(#572),#580);
#588=PRODUCT_DEFINITION('design','',#587,#584);
#589=PRODUCT_DEFINITION_SHAPE('','SHAPE FOR CHF8838XNF.',#588);
#590=SHAPE_DEFINITION_REPRESENTATION(#589,#581);
ENDSEC;
END-ISO-10303-21;
