ISO-10303-21;
HEADER;
FILE_DESCRIPTION((''),'2;1');
FILE_NAME('CHF9838CNF','2012-08-21T',('ryans'),('Bourns, Inc.'),
'PRO/ENGINEER BY PARAMETRIC TECHNOLOGY CORPORATION, 2010100',
'PRO/ENGINEER BY PARAMETRIC TECHNOLOGY CORPORATION, 2010100','');
FILE_SCHEMA(('CONFIG_CONTROL_DESIGN'));
ENDSEC;
DATA;
#1=CARTESIAN_POINT('',(9.21E0,0.E0,0.E0));
#2=DIRECTION('',(0.E0,-1.E0,0.E0));
#3=DIRECTION('',(1.E0,0.E0,0.E0));
#4=AXIS2_PLACEMENT_3D('',#1,#2,#3);
#6=CARTESIAN_POINT('',(9.21E0,0.E0,0.E0));
#7=DIRECTION('',(0.E0,-1.E0,0.E0));
#8=DIRECTION('',(-1.E0,0.E0,0.E0));
#9=AXIS2_PLACEMENT_3D('',#6,#7,#8);
#11=CARTESIAN_POINT('',(-9.21E0,0.E0,0.E0));
#12=DIRECTION('',(0.E0,-1.E0,0.E0));
#13=DIRECTION('',(1.E0,0.E0,0.E0));
#14=AXIS2_PLACEMENT_3D('',#11,#12,#13);
#16=CARTESIAN_POINT('',(-9.21E0,0.E0,0.E0));
#17=DIRECTION('',(0.E0,-1.E0,0.E0));
#18=DIRECTION('',(-1.E0,0.E0,0.E0));
#19=AXIS2_PLACEMENT_3D('',#16,#17,#18);
#21=DIRECTION('',(0.E0,0.E0,1.E0));
#22=VECTOR('',#21,9.53E0);
#23=CARTESIAN_POINT('',(-1.2385E1,0.E0,-4.765E0));
#24=LINE('',#23,#22);
#25=DIRECTION('',(1.E0,0.E0,0.E0));
#26=VECTOR('',#25,2.477E1);
#27=CARTESIAN_POINT('',(-1.2385E1,0.E0,4.765E0));
#28=LINE('',#27,#26);
#29=DIRECTION('',(0.E0,0.E0,-1.E0));
#30=VECTOR('',#29,9.53E0);
#31=CARTESIAN_POINT('',(1.2385E1,0.E0,4.765E0));
#32=LINE('',#31,#30);
#33=DIRECTION('',(-1.E0,0.E0,0.E0));
#34=VECTOR('',#33,2.477E1);
#35=CARTESIAN_POINT('',(1.2385E1,0.E0,-4.765E0));
#36=LINE('',#35,#34);
#37=DIRECTION('',(0.E0,1.E0,0.E0));
#38=VECTOR('',#37,2.79E0);
#39=CARTESIAN_POINT('',(1.096E1,0.E0,0.E0));
#40=LINE('',#39,#38);
#41=DIRECTION('',(0.E0,1.E0,0.E0));
#42=VECTOR('',#41,2.79E0);
#43=CARTESIAN_POINT('',(7.46E0,0.E0,0.E0));
#44=LINE('',#43,#42);
#45=CARTESIAN_POINT('',(9.21E0,2.79E0,0.E0));
#46=DIRECTION('',(0.E0,-1.E0,0.E0));
#47=DIRECTION('',(1.E0,0.E0,0.E0));
#48=AXIS2_PLACEMENT_3D('',#45,#46,#47);
#50=CARTESIAN_POINT('',(9.21E0,2.79E0,0.E0));
#51=DIRECTION('',(0.E0,-1.E0,0.E0));
#52=DIRECTION('',(-1.E0,0.E0,0.E0));
#53=AXIS2_PLACEMENT_3D('',#50,#51,#52);
#55=CARTESIAN_POINT('',(-9.21E0,2.79E0,0.E0));
#56=DIRECTION('',(0.E0,-1.E0,0.E0));
#57=DIRECTION('',(1.E0,0.E0,0.E0));
#58=AXIS2_PLACEMENT_3D('',#55,#56,#57);
#60=CARTESIAN_POINT('',(-9.21E0,2.79E0,0.E0));
#61=DIRECTION('',(0.E0,-1.E0,0.E0));
#62=DIRECTION('',(-1.E0,0.E0,0.E0));
#63=AXIS2_PLACEMENT_3D('',#60,#61,#62);
#65=DIRECTION('',(0.E0,0.E0,-1.E0));
#66=VECTOR('',#65,9.53E0);
#67=CARTESIAN_POINT('',(-4.765E0,2.79E0,4.765E0));
#68=LINE('',#67,#66);
#69=DIRECTION('',(1.E0,0.E0,0.E0));
#70=VECTOR('',#69,7.62E0);
#71=CARTESIAN_POINT('',(-1.2385E1,2.79E0,4.765E0));
#72=LINE('',#71,#70);
#73=DIRECTION('',(0.E0,0.E0,1.E0));
#74=VECTOR('',#73,9.53E0);
#75=CARTESIAN_POINT('',(-1.2385E1,2.79E0,-4.765E0));
#76=LINE('',#75,#74);
#77=DIRECTION('',(-1.E0,0.E0,0.E0));
#78=VECTOR('',#77,7.62E0);
#79=CARTESIAN_POINT('',(-4.765E0,2.79E0,-4.765E0));
#80=LINE('',#79,#78);
#81=DIRECTION('',(0.E0,0.E0,-1.E0));
#82=VECTOR('',#81,9.53E0);
#83=CARTESIAN_POINT('',(4.765E0,2.79E0,4.765E0));
#84=LINE('',#83,#82);
#85=DIRECTION('',(-1.E0,0.E0,0.E0));
#86=VECTOR('',#85,7.62E0);
#87=CARTESIAN_POINT('',(1.2385E1,2.79E0,-4.765E0));
#88=LINE('',#87,#86);
#89=DIRECTION('',(0.E0,0.E0,-1.E0));
#90=VECTOR('',#89,9.53E0);
#91=CARTESIAN_POINT('',(1.2385E1,2.79E0,4.765E0));
#92=LINE('',#91,#90);
#93=DIRECTION('',(1.E0,0.E0,0.E0));
#94=VECTOR('',#93,7.62E0);
#95=CARTESIAN_POINT('',(4.765E0,2.79E0,4.765E0));
#96=LINE('',#95,#94);
#97=DIRECTION('',(0.E0,1.E0,0.E0));
#98=VECTOR('',#97,2.79E0);
#99=CARTESIAN_POINT('',(-7.46E0,0.E0,0.E0));
#100=LINE('',#99,#98);
#101=DIRECTION('',(0.E0,1.E0,0.E0));
#102=VECTOR('',#101,2.79E0);
#103=CARTESIAN_POINT('',(-1.096E1,0.E0,0.E0));
#104=LINE('',#103,#102);
#105=DIRECTION('',(0.E0,1.E0,0.E0));
#106=VECTOR('',#105,9.E-1);
#107=CARTESIAN_POINT('',(-4.765E0,2.79E0,-4.765E0));
#108=LINE('',#107,#106);
#109=DIRECTION('',(0.E0,1.E0,0.E0));
#110=VECTOR('',#109,9.E-1);
#111=CARTESIAN_POINT('',(4.765E0,2.79E0,-4.765E0));
#112=LINE('',#111,#110);
#113=DIRECTION('',(0.E0,1.E0,0.E0));
#114=VECTOR('',#113,2.79E0);
#115=CARTESIAN_POINT('',(1.2385E1,0.E0,-4.765E0));
#116=LINE('',#115,#114);
#117=DIRECTION('',(0.E0,1.E0,0.E0));
#118=VECTOR('',#117,9.E-1);
#119=CARTESIAN_POINT('',(4.765E0,2.79E0,4.765E0));
#120=LINE('',#119,#118);
#121=DIRECTION('',(1.E0,0.E0,0.E0));
#122=VECTOR('',#121,3.E0);
#123=CARTESIAN_POINT('',(-1.5E0,3.69E0,4.765E0));
#124=LINE('',#123,#122);
#125=DIRECTION('',(0.E0,1.E0,0.E0));
#126=VECTOR('',#125,2.79E0);
#127=CARTESIAN_POINT('',(-1.2385E1,0.E0,4.765E0));
#128=LINE('',#127,#126);
#129=DIRECTION('',(0.E0,1.E0,0.E0));
#130=VECTOR('',#129,9.E-1);
#131=CARTESIAN_POINT('',(-4.765E0,2.79E0,4.765E0));
#132=LINE('',#131,#130);
#133=DIRECTION('',(1.E0,0.E0,0.E0));
#134=VECTOR('',#133,3.265E0);
#135=CARTESIAN_POINT('',(-4.765E0,3.69E0,4.765E0));
#136=LINE('',#135,#134);
#137=DIRECTION('',(0.E0,0.E0,1.E0));
#138=VECTOR('',#137,9.53E0);
#139=CARTESIAN_POINT('',(-4.765E0,3.69E0,-4.765E0));
#140=LINE('',#139,#138);
#141=DIRECTION('',(-1.E0,0.E0,0.E0));
#142=VECTOR('',#141,9.53E0);
#143=CARTESIAN_POINT('',(4.765E0,3.69E0,-4.765E0));
#144=LINE('',#143,#142);
#145=DIRECTION('',(0.E0,0.E0,-1.E0));
#146=VECTOR('',#145,9.53E0);
#147=CARTESIAN_POINT('',(4.765E0,3.69E0,4.765E0));
#148=LINE('',#147,#146);
#149=DIRECTION('',(1.E0,0.E0,0.E0));
#150=VECTOR('',#149,3.265E0);
#151=CARTESIAN_POINT('',(1.5E0,3.69E0,4.765E0));
#152=LINE('',#151,#150);
#153=DIRECTION('',(0.E0,0.E0,-1.E0));
#154=VECTOR('',#153,7.000716297699E-1);
#155=CARTESIAN_POINT('',(1.5E0,3.69E0,4.765E0));
#156=LINE('',#155,#154);
#157=DIRECTION('',(-1.E0,0.E0,0.E0));
#158=VECTOR('',#157,3.E0);
#159=CARTESIAN_POINT('',(1.5E0,3.69E0,4.064928370230E0));
#160=LINE('',#159,#158);
#161=DIRECTION('',(0.E0,0.E0,-1.E0));
#162=VECTOR('',#161,7.000716297699E-1);
#163=CARTESIAN_POINT('',(-1.5E0,3.69E0,4.765E0));
#164=LINE('',#163,#162);
#165=DIRECTION('',(0.E0,-1.E0,0.E0));
#166=VECTOR('',#165,1.E-1);
#167=CARTESIAN_POINT('',(1.5E0,3.79E0,1.1265E1));
#168=LINE('',#167,#166);
#169=DIRECTION('',(0.E0,0.E0,1.E0));
#170=VECTOR('',#169,6.5E0);
#171=CARTESIAN_POINT('',(-1.5E0,3.69E0,4.765E0));
#172=LINE('',#171,#170);
#173=DIRECTION('',(1.E0,0.E0,0.E0));
#174=VECTOR('',#173,3.E0);
#175=CARTESIAN_POINT('',(-1.5E0,3.69E0,1.1265E1));
#176=LINE('',#175,#174);
#177=DIRECTION('',(0.E0,0.E0,-1.E0));
#178=VECTOR('',#177,6.5E0);
#179=CARTESIAN_POINT('',(1.5E0,3.69E0,1.1265E1));
#180=LINE('',#179,#178);
#181=DIRECTION('',(0.E0,-1.E0,0.E0));
#182=VECTOR('',#181,1.E-1);
#183=CARTESIAN_POINT('',(-1.5E0,3.79E0,4.064928370230E0));
#184=LINE('',#183,#182);
#185=DIRECTION('',(0.E0,-1.E0,0.E0));
#186=VECTOR('',#185,1.E-1);
#187=CARTESIAN_POINT('',(1.5E0,3.79E0,4.064928370230E0));
#188=LINE('',#187,#186);
#189=DIRECTION('',(0.E0,0.E0,1.E0));
#190=VECTOR('',#189,7.200071629770E0);
#191=CARTESIAN_POINT('',(-1.5E0,3.79E0,4.064928370230E0));
#192=LINE('',#191,#190);
#193=DIRECTION('',(-1.E0,0.E0,0.E0));
#194=VECTOR('',#193,3.E0);
#195=CARTESIAN_POINT('',(1.5E0,3.79E0,4.064928370230E0));
#196=LINE('',#195,#194);
#197=DIRECTION('',(0.E0,0.E0,-1.E0));
#198=VECTOR('',#197,7.200071629770E0);
#199=CARTESIAN_POINT('',(1.5E0,3.79E0,1.1265E1));
#200=LINE('',#199,#198);
#201=DIRECTION('',(1.E0,0.E0,0.E0));
#202=VECTOR('',#201,3.E0);
#203=CARTESIAN_POINT('',(-1.5E0,3.79E0,1.1265E1));
#204=LINE('',#203,#202);
#205=DIRECTION('',(0.E0,-1.E0,0.E0));
#206=VECTOR('',#205,1.E-1);
#207=CARTESIAN_POINT('',(-1.5E0,3.79E0,1.1265E1));
#208=LINE('',#207,#206);
#209=DIRECTION('',(0.E0,1.E0,0.E0));
#210=VECTOR('',#209,2.79E0);
#211=CARTESIAN_POINT('',(1.2385E1,0.E0,4.765E0));
#212=LINE('',#211,#210);
#213=DIRECTION('',(0.E0,1.E0,0.E0));
#214=VECTOR('',#213,2.79E0);
#215=CARTESIAN_POINT('',(-1.2385E1,0.E0,-4.765E0));
#216=LINE('',#215,#214);
#217=CARTESIAN_POINT('',(-1.2385E1,0.E0,-4.765E0));
#218=CARTESIAN_POINT('',(-1.2385E1,0.E0,4.765E0));
#219=VERTEX_POINT('',#217);
#220=VERTEX_POINT('',#218);
#221=CARTESIAN_POINT('',(1.2385E1,0.E0,4.765E0));
#222=VERTEX_POINT('',#221);
#223=CARTESIAN_POINT('',(1.2385E1,0.E0,-4.765E0));
#224=VERTEX_POINT('',#223);
#225=CARTESIAN_POINT('',(-1.2385E1,2.79E0,-4.765E0));
#226=CARTESIAN_POINT('',(-1.2385E1,2.79E0,4.765E0));
#227=VERTEX_POINT('',#225);
#228=VERTEX_POINT('',#226);
#229=CARTESIAN_POINT('',(1.2385E1,2.79E0,4.765E0));
#230=CARTESIAN_POINT('',(1.2385E1,2.79E0,-4.765E0));
#231=VERTEX_POINT('',#229);
#232=VERTEX_POINT('',#230);
#233=CARTESIAN_POINT('',(1.096E1,0.E0,0.E0));
#234=CARTESIAN_POINT('',(7.46E0,0.E0,0.E0));
#235=VERTEX_POINT('',#233);
#236=VERTEX_POINT('',#234);
#237=CARTESIAN_POINT('',(-7.46E0,0.E0,0.E0));
#238=CARTESIAN_POINT('',(-1.096E1,0.E0,0.E0));
#239=VERTEX_POINT('',#237);
#240=VERTEX_POINT('',#238);
#241=CARTESIAN_POINT('',(1.096E1,2.79E0,0.E0));
#242=CARTESIAN_POINT('',(7.46E0,2.79E0,0.E0));
#243=VERTEX_POINT('',#241);
#244=VERTEX_POINT('',#242);
#245=CARTESIAN_POINT('',(-7.46E0,2.79E0,0.E0));
#246=CARTESIAN_POINT('',(-1.096E1,2.79E0,0.E0));
#247=VERTEX_POINT('',#245);
#248=VERTEX_POINT('',#246);
#249=CARTESIAN_POINT('',(-4.765E0,3.69E0,-4.765E0));
#250=CARTESIAN_POINT('',(-4.765E0,3.69E0,4.765E0));
#251=VERTEX_POINT('',#249);
#252=VERTEX_POINT('',#250);
#253=CARTESIAN_POINT('',(4.765E0,3.69E0,4.765E0));
#254=CARTESIAN_POINT('',(4.765E0,3.69E0,-4.765E0));
#255=VERTEX_POINT('',#253);
#256=VERTEX_POINT('',#254);
#257=CARTESIAN_POINT('',(-4.765E0,2.79E0,4.765E0));
#258=CARTESIAN_POINT('',(-4.765E0,2.79E0,-4.765E0));
#259=VERTEX_POINT('',#257);
#260=VERTEX_POINT('',#258);
#261=CARTESIAN_POINT('',(4.765E0,2.79E0,4.765E0));
#262=CARTESIAN_POINT('',(4.765E0,2.79E0,-4.765E0));
#263=VERTEX_POINT('',#261);
#264=VERTEX_POINT('',#262);
#265=CARTESIAN_POINT('',(-1.5E0,3.79E0,4.064928370230E0));
#266=CARTESIAN_POINT('',(-1.5E0,3.79E0,1.1265E1));
#267=VERTEX_POINT('',#265);
#268=VERTEX_POINT('',#266);
#269=CARTESIAN_POINT('',(1.5E0,3.79E0,1.1265E1));
#270=VERTEX_POINT('',#269);
#271=CARTESIAN_POINT('',(1.5E0,3.79E0,4.064928370230E0));
#272=VERTEX_POINT('',#271);
#273=CARTESIAN_POINT('',(-1.5E0,3.69E0,1.1265E1));
#274=CARTESIAN_POINT('',(1.5E0,3.69E0,1.1265E1));
#275=VERTEX_POINT('',#273);
#276=VERTEX_POINT('',#274);
#277=CARTESIAN_POINT('',(-1.5E0,3.69E0,4.765E0));
#278=VERTEX_POINT('',#277);
#279=CARTESIAN_POINT('',(1.5E0,3.69E0,4.765E0));
#280=VERTEX_POINT('',#279);
#281=CARTESIAN_POINT('',(-1.5E0,3.69E0,4.064928370230E0));
#282=VERTEX_POINT('',#281);
#283=CARTESIAN_POINT('',(1.5E0,3.69E0,4.064928370230E0));
#284=VERTEX_POINT('',#283);
#285=CARTESIAN_POINT('',(0.E0,0.E0,0.E0));
#286=DIRECTION('',(0.E0,1.E0,0.E0));
#287=DIRECTION('',(1.E0,0.E0,0.E0));
#288=AXIS2_PLACEMENT_3D('',#285,#286,#287);
#289=PLANE('',#288);
#291=ORIENTED_EDGE('',*,*,#290,.T.);
#293=ORIENTED_EDGE('',*,*,#292,.T.);
#295=ORIENTED_EDGE('',*,*,#294,.T.);
#297=ORIENTED_EDGE('',*,*,#296,.T.);
#298=EDGE_LOOP('',(#291,#293,#295,#297));
#299=FACE_OUTER_BOUND('',#298,.F.);
#301=ORIENTED_EDGE('',*,*,#300,.T.);
#303=ORIENTED_EDGE('',*,*,#302,.T.);
#304=EDGE_LOOP('',(#301,#303));
#305=FACE_BOUND('',#304,.F.);
#307=ORIENTED_EDGE('',*,*,#306,.T.);
#309=ORIENTED_EDGE('',*,*,#308,.T.);
#310=EDGE_LOOP('',(#307,#309));
#311=FACE_BOUND('',#310,.F.);
#313=CARTESIAN_POINT('',(9.21E0,0.E0,0.E0));
#314=DIRECTION('',(0.E0,1.E0,0.E0));
#315=DIRECTION('',(1.E0,0.E0,0.E0));
#316=AXIS2_PLACEMENT_3D('',#313,#314,#315);
#317=CYLINDRICAL_SURFACE('',#316,1.75E0);
#318=ORIENTED_EDGE('',*,*,#306,.F.);
#320=ORIENTED_EDGE('',*,*,#319,.T.);
#322=ORIENTED_EDGE('',*,*,#321,.T.);
#324=ORIENTED_EDGE('',*,*,#323,.F.);
#325=EDGE_LOOP('',(#318,#320,#322,#324));
#326=FACE_OUTER_BOUND('',#325,.F.);
#328=CARTESIAN_POINT('',(9.21E0,0.E0,0.E0));
#329=DIRECTION('',(0.E0,1.E0,0.E0));
#330=DIRECTION('',(1.E0,0.E0,0.E0));
#331=AXIS2_PLACEMENT_3D('',#328,#329,#330);
#332=CYLINDRICAL_SURFACE('',#331,1.75E0);
#333=ORIENTED_EDGE('',*,*,#308,.F.);
#334=ORIENTED_EDGE('',*,*,#323,.T.);
#336=ORIENTED_EDGE('',*,*,#335,.T.);
#337=ORIENTED_EDGE('',*,*,#319,.F.);
#338=EDGE_LOOP('',(#333,#334,#336,#337));
#339=FACE_OUTER_BOUND('',#338,.F.);
#341=CARTESIAN_POINT('',(0.E0,2.79E0,0.E0));
#342=DIRECTION('',(0.E0,1.E0,0.E0));
#343=DIRECTION('',(1.E0,0.E0,0.E0));
#344=AXIS2_PLACEMENT_3D('',#341,#342,#343);
#345=PLANE('',#344);
#347=ORIENTED_EDGE('',*,*,#346,.F.);
#349=ORIENTED_EDGE('',*,*,#348,.F.);
#351=ORIENTED_EDGE('',*,*,#350,.F.);
#353=ORIENTED_EDGE('',*,*,#352,.F.);
#354=EDGE_LOOP('',(#347,#349,#351,#353));
#355=FACE_OUTER_BOUND('',#354,.F.);
#357=ORIENTED_EDGE('',*,*,#356,.F.);
#359=ORIENTED_EDGE('',*,*,#358,.F.);
#360=EDGE_LOOP('',(#357,#359));
#361=FACE_BOUND('',#360,.F.);
#363=CARTESIAN_POINT('',(0.E0,2.79E0,0.E0));
#364=DIRECTION('',(0.E0,1.E0,0.E0));
#365=DIRECTION('',(1.E0,0.E0,0.E0));
#366=AXIS2_PLACEMENT_3D('',#363,#364,#365);
#367=PLANE('',#366);
#369=ORIENTED_EDGE('',*,*,#368,.T.);
#371=ORIENTED_EDGE('',*,*,#370,.F.);
#373=ORIENTED_EDGE('',*,*,#372,.F.);
#375=ORIENTED_EDGE('',*,*,#374,.F.);
#376=EDGE_LOOP('',(#369,#371,#373,#375));
#377=FACE_OUTER_BOUND('',#376,.F.);
#378=ORIENTED_EDGE('',*,*,#321,.F.);
#379=ORIENTED_EDGE('',*,*,#335,.F.);
#380=EDGE_LOOP('',(#378,#379));
#381=FACE_BOUND('',#380,.F.);
#383=CARTESIAN_POINT('',(-9.21E0,0.E0,0.E0));
#384=DIRECTION('',(0.E0,1.E0,0.E0));
#385=DIRECTION('',(1.E0,0.E0,0.E0));
#386=AXIS2_PLACEMENT_3D('',#383,#384,#385);
#387=CYLINDRICAL_SURFACE('',#386,1.75E0);
#388=ORIENTED_EDGE('',*,*,#300,.F.);
#390=ORIENTED_EDGE('',*,*,#389,.T.);
#391=ORIENTED_EDGE('',*,*,#356,.T.);
#393=ORIENTED_EDGE('',*,*,#392,.F.);
#394=EDGE_LOOP('',(#388,#390,#391,#393));
#395=FACE_OUTER_BOUND('',#394,.F.);
#397=CARTESIAN_POINT('',(-9.21E0,0.E0,0.E0));
#398=DIRECTION('',(0.E0,1.E0,0.E0));
#399=DIRECTION('',(1.E0,0.E0,0.E0));
#400=AXIS2_PLACEMENT_3D('',#397,#398,#399);
#401=CYLINDRICAL_SURFACE('',#400,1.75E0);
#402=ORIENTED_EDGE('',*,*,#302,.F.);
#403=ORIENTED_EDGE('',*,*,#392,.T.);
#404=ORIENTED_EDGE('',*,*,#358,.T.);
#405=ORIENTED_EDGE('',*,*,#389,.F.);
#406=EDGE_LOOP('',(#402,#403,#404,#405));
#407=FACE_OUTER_BOUND('',#406,.F.);
#409=CARTESIAN_POINT('',(-4.765E0,0.E0,-4.765E0));
#410=DIRECTION('',(-1.E0,0.E0,0.E0));
#411=DIRECTION('',(0.E0,0.E0,1.E0));
#412=AXIS2_PLACEMENT_3D('',#409,#410,#411);
#413=PLANE('',#412);
#414=ORIENTED_EDGE('',*,*,#346,.T.);
#416=ORIENTED_EDGE('',*,*,#415,.T.);
#418=ORIENTED_EDGE('',*,*,#417,.T.);
#420=ORIENTED_EDGE('',*,*,#419,.F.);
#421=EDGE_LOOP('',(#414,#416,#418,#420));
#422=FACE_OUTER_BOUND('',#421,.F.);
#424=CARTESIAN_POINT('',(1.2385E1,0.E0,-4.765E0));
#425=DIRECTION('',(0.E0,0.E0,-1.E0));
#426=DIRECTION('',(-1.E0,0.E0,0.E0));
#427=AXIS2_PLACEMENT_3D('',#424,#425,#426);
#428=PLANE('',#427);
#429=ORIENTED_EDGE('',*,*,#370,.T.);
#431=ORIENTED_EDGE('',*,*,#430,.T.);
#433=ORIENTED_EDGE('',*,*,#432,.T.);
#434=ORIENTED_EDGE('',*,*,#415,.F.);
#435=ORIENTED_EDGE('',*,*,#352,.T.);
#437=ORIENTED_EDGE('',*,*,#436,.F.);
#438=ORIENTED_EDGE('',*,*,#296,.F.);
#440=ORIENTED_EDGE('',*,*,#439,.T.);
#441=EDGE_LOOP('',(#429,#431,#433,#434,#435,#437,#438,#440));
#442=FACE_OUTER_BOUND('',#441,.F.);
#444=CARTESIAN_POINT('',(4.765E0,0.E0,4.765E0));
#445=DIRECTION('',(1.E0,0.E0,0.E0));
#446=DIRECTION('',(0.E0,0.E0,-1.E0));
#447=AXIS2_PLACEMENT_3D('',#444,#445,#446);
#448=PLANE('',#447);
#449=ORIENTED_EDGE('',*,*,#368,.F.);
#451=ORIENTED_EDGE('',*,*,#450,.T.);
#453=ORIENTED_EDGE('',*,*,#452,.T.);
#454=ORIENTED_EDGE('',*,*,#430,.F.);
#455=EDGE_LOOP('',(#449,#451,#453,#454));
#456=FACE_OUTER_BOUND('',#455,.F.);
#458=CARTESIAN_POINT('',(-1.2385E1,0.E0,4.765E0));
#459=DIRECTION('',(0.E0,0.E0,1.E0));
#460=DIRECTION('',(1.E0,0.E0,0.E0));
#461=AXIS2_PLACEMENT_3D('',#458,#459,#460);
#462=PLANE('',#461);
#464=ORIENTED_EDGE('',*,*,#463,.T.);
#466=ORIENTED_EDGE('',*,*,#465,.T.);
#468=ORIENTED_EDGE('',*,*,#467,.T.);
#469=ORIENTED_EDGE('',*,*,#450,.F.);
#470=ORIENTED_EDGE('',*,*,#374,.T.);
#472=ORIENTED_EDGE('',*,*,#471,.F.);
#473=ORIENTED_EDGE('',*,*,#292,.F.);
#475=ORIENTED_EDGE('',*,*,#474,.T.);
#476=ORIENTED_EDGE('',*,*,#348,.T.);
#477=ORIENTED_EDGE('',*,*,#419,.T.);
#478=EDGE_LOOP('',(#464,#466,#468,#469,#470,#472,#473,#475,#476,#477));
#479=FACE_OUTER_BOUND('',#478,.F.);
#481=CARTESIAN_POINT('',(0.E0,3.69E0,0.E0));
#482=DIRECTION('',(0.E0,1.E0,0.E0));
#483=DIRECTION('',(1.E0,0.E0,0.E0));
#484=AXIS2_PLACEMENT_3D('',#481,#482,#483);
#485=PLANE('',#484);
#486=ORIENTED_EDGE('',*,*,#463,.F.);
#487=ORIENTED_EDGE('',*,*,#417,.F.);
#488=ORIENTED_EDGE('',*,*,#432,.F.);
#489=ORIENTED_EDGE('',*,*,#452,.F.);
#490=ORIENTED_EDGE('',*,*,#467,.F.);
#492=ORIENTED_EDGE('',*,*,#491,.T.);
#494=ORIENTED_EDGE('',*,*,#493,.T.);
#496=ORIENTED_EDGE('',*,*,#495,.F.);
#497=EDGE_LOOP('',(#486,#487,#488,#489,#490,#492,#494,#496));
#498=FACE_OUTER_BOUND('',#497,.F.);
#500=CARTESIAN_POINT('',(1.5E0,3.79E0,1.1265E1));
#501=DIRECTION('',(1.E0,0.E0,0.E0));
#502=DIRECTION('',(0.E0,0.E0,-1.E0));
#503=AXIS2_PLACEMENT_3D('',#500,#501,#502);
#504=PLANE('',#503);
#506=ORIENTED_EDGE('',*,*,#505,.F.);
#508=ORIENTED_EDGE('',*,*,#507,.F.);
#510=ORIENTED_EDGE('',*,*,#509,.T.);
#512=ORIENTED_EDGE('',*,*,#511,.T.);
#513=ORIENTED_EDGE('',*,*,#491,.F.);
#514=EDGE_LOOP('',(#506,#508,#510,#512,#513));
#515=FACE_OUTER_BOUND('',#514,.F.);
#517=CARTESIAN_POINT('',(0.E0,3.69E0,0.E0));
#518=DIRECTION('',(0.E0,1.E0,0.E0));
#519=DIRECTION('',(1.E0,0.E0,0.E0));
#520=AXIS2_PLACEMENT_3D('',#517,#518,#519);
#521=PLANE('',#520);
#523=ORIENTED_EDGE('',*,*,#522,.T.);
#525=ORIENTED_EDGE('',*,*,#524,.T.);
#526=ORIENTED_EDGE('',*,*,#505,.T.);
#527=ORIENTED_EDGE('',*,*,#465,.F.);
#528=EDGE_LOOP('',(#523,#525,#526,#527));
#529=FACE_OUTER_BOUND('',#528,.F.);
#531=CARTESIAN_POINT('',(-1.5E0,3.79E0,4.064928370230E0));
#532=DIRECTION('',(-1.E0,0.E0,0.E0));
#533=DIRECTION('',(0.E0,0.E0,1.E0));
#534=AXIS2_PLACEMENT_3D('',#531,#532,#533);
#535=PLANE('',#534);
#536=ORIENTED_EDGE('',*,*,#522,.F.);
#537=ORIENTED_EDGE('',*,*,#495,.T.);
#539=ORIENTED_EDGE('',*,*,#538,.F.);
#541=ORIENTED_EDGE('',*,*,#540,.T.);
#543=ORIENTED_EDGE('',*,*,#542,.T.);
#544=EDGE_LOOP('',(#536,#537,#539,#541,#543));
#545=FACE_OUTER_BOUND('',#544,.F.);
#547=CARTESIAN_POINT('',(1.5E0,3.79E0,4.064928370230E0));
#548=DIRECTION('',(0.E0,0.E0,-1.E0));
#549=DIRECTION('',(-1.E0,0.E0,0.E0));
#550=AXIS2_PLACEMENT_3D('',#547,#548,#549);
#551=PLANE('',#550);
#552=ORIENTED_EDGE('',*,*,#493,.F.);
#553=ORIENTED_EDGE('',*,*,#511,.F.);
#555=ORIENTED_EDGE('',*,*,#554,.T.);
#556=ORIENTED_EDGE('',*,*,#538,.T.);
#557=EDGE_LOOP('',(#552,#553,#555,#556));
#558=FACE_OUTER_BOUND('',#557,.F.);
#560=CARTESIAN_POINT('',(0.E0,3.79E0,0.E0));
#561=DIRECTION('',(0.E0,1.E0,0.E0));
#562=DIRECTION('',(1.E0,0.E0,0.E0));
#563=AXIS2_PLACEMENT_3D('',#560,#561,#562);
#564=PLANE('',#563);
#565=ORIENTED_EDGE('',*,*,#540,.F.);
#566=ORIENTED_EDGE('',*,*,#554,.F.);
#567=ORIENTED_EDGE('',*,*,#509,.F.);
#569=ORIENTED_EDGE('',*,*,#568,.F.);
#570=EDGE_LOOP('',(#565,#566,#567,#569));
#571=FACE_OUTER_BOUND('',#570,.F.);
#573=CARTESIAN_POINT('',(-1.5E0,3.79E0,1.1265E1));
#574=DIRECTION('',(0.E0,0.E0,1.E0));
#575=DIRECTION('',(1.E0,0.E0,0.E0));
#576=AXIS2_PLACEMENT_3D('',#573,#574,#575);
#577=PLANE('',#576);
#578=ORIENTED_EDGE('',*,*,#568,.T.);
#579=ORIENTED_EDGE('',*,*,#507,.T.);
#580=ORIENTED_EDGE('',*,*,#524,.F.);
#581=ORIENTED_EDGE('',*,*,#542,.F.);
#582=EDGE_LOOP('',(#578,#579,#580,#581));
#583=FACE_OUTER_BOUND('',#582,.F.);
#585=CARTESIAN_POINT('',(1.2385E1,0.E0,4.765E0));
#586=DIRECTION('',(1.E0,0.E0,0.E0));
#587=DIRECTION('',(0.E0,0.E0,-1.E0));
#588=AXIS2_PLACEMENT_3D('',#585,#586,#587);
#589=PLANE('',#588);
#590=ORIENTED_EDGE('',*,*,#294,.F.);
#591=ORIENTED_EDGE('',*,*,#471,.T.);
#592=ORIENTED_EDGE('',*,*,#372,.T.);
#593=ORIENTED_EDGE('',*,*,#439,.F.);
#594=EDGE_LOOP('',(#590,#591,#592,#593));
#595=FACE_OUTER_BOUND('',#594,.F.);
#597=CARTESIAN_POINT('',(-1.2385E1,0.E0,-4.765E0));
#598=DIRECTION('',(-1.E0,0.E0,0.E0));
#599=DIRECTION('',(0.E0,0.E0,1.E0));
#600=AXIS2_PLACEMENT_3D('',#597,#598,#599);
#601=PLANE('',#600);
#602=ORIENTED_EDGE('',*,*,#290,.F.);
#603=ORIENTED_EDGE('',*,*,#436,.T.);
#604=ORIENTED_EDGE('',*,*,#350,.T.);
#605=ORIENTED_EDGE('',*,*,#474,.F.);
#606=EDGE_LOOP('',(#602,#603,#604,#605));
#607=FACE_OUTER_BOUND('',#606,.F.);
#609=CLOSED_SHELL('',(#312,#327,#340,#362,#382,#396,#408,#423,#443,#457,#480,
#499,#516,#530,#546,#559,#572,#584,#596,#608));
#610=MANIFOLD_SOLID_BREP('',#609);
#612=DIMENSIONAL_EXPONENTS(0.E0,0.E0,0.E0,0.E0,0.E0,0.E0,0.E0);
#614=PLANE_ANGLE_MEASURE_WITH_UNIT(PLANE_ANGLE_MEASURE(1.745329251994E-2),#613);
#615=(CONVERSION_BASED_UNIT('DEGREE',#614)NAMED_UNIT(*)PLANE_ANGLE_UNIT());
#617=UNCERTAINTY_MEASURE_WITH_UNIT(LENGTH_MEASURE(1.239404476721E-3),#611,
'closure',
'Maximum model space distance between geometric entities at asserted connectivities');
#620=APPLICATION_CONTEXT(
'CONFIGURATION CONTROLLED 3D DESIGNS OF MECHANICAL PARTS AND ASSEMBLIES');
#621=APPLICATION_PROTOCOL_DEFINITION('international standard',
'config_control_design',1994,#620);
#622=DESIGN_CONTEXT('',#620,'design');
#623=MECHANICAL_CONTEXT('',#620,'mechanical');
#624=PRODUCT('CHF9838CNF','CHF9838CNF','NOT SPECIFIED',(#623));
#625=PRODUCT_DEFINITION_FORMATION_WITH_SPECIFIED_SOURCE('1','LAST_VERSION',#624,
.MADE.);
#629=PRODUCT_CATEGORY('part','');
#630=PRODUCT_RELATED_PRODUCT_CATEGORY('detail','',(#624));
#631=PRODUCT_CATEGORY_RELATIONSHIP('','',#629,#630);
#632=SECURITY_CLASSIFICATION_LEVEL('unclassified');
#633=SECURITY_CLASSIFICATION('','',#632);
#634=CC_DESIGN_SECURITY_CLASSIFICATION(#633,(#625));
#635=APPROVAL_STATUS('approved');
#636=APPROVAL(#635,'');
#637=CC_DESIGN_APPROVAL(#636,(#633,#625,#626));
#638=CALENDAR_DATE(112,21,8);
#639=COORDINATED_UNIVERSAL_TIME_OFFSET(7,0,.BEHIND.);
#640=LOCAL_TIME(16,27,2.1E1,#639);
#641=DATE_AND_TIME(#638,#640);
#642=APPROVAL_DATE_TIME(#641,#636);
#643=DATE_TIME_ROLE('creation_date');
#644=CC_DESIGN_DATE_AND_TIME_ASSIGNMENT(#641,#643,(#626));
#645=DATE_TIME_ROLE('classification_date');
#646=CC_DESIGN_DATE_AND_TIME_ASSIGNMENT(#641,#645,(#633));
#647=PERSON('UNSPECIFIED','UNSPECIFIED',$,$,$,$);
#648=ORGANIZATION('UNSPECIFIED','UNSPECIFIED','UNSPECIFIED');
#649=PERSON_AND_ORGANIZATION(#647,#648);
#650=APPROVAL_ROLE('approver');
#651=APPROVAL_PERSON_ORGANIZATION(#649,#636,#650);
#652=PERSON_AND_ORGANIZATION_ROLE('creator');
#653=CC_DESIGN_PERSON_AND_ORGANIZATION_ASSIGNMENT(#649,#652,(#625,#626));
#654=PERSON_AND_ORGANIZATION_ROLE('design_supplier');
#655=CC_DESIGN_PERSON_AND_ORGANIZATION_ASSIGNMENT(#649,#654,(#625));
#656=PERSON_AND_ORGANIZATION_ROLE('classification_officer');
#657=CC_DESIGN_PERSON_AND_ORGANIZATION_ASSIGNMENT(#649,#656,(#633));
#658=PERSON_AND_ORGANIZATION_ROLE('design_owner');
#659=CC_DESIGN_PERSON_AND_ORGANIZATION_ASSIGNMENT(#649,#658,(#624));
#5=CIRCLE('',#4,1.75E0);
#10=CIRCLE('',#9,1.75E0);
#15=CIRCLE('',#14,1.75E0);
#20=CIRCLE('',#19,1.75E0);
#49=CIRCLE('',#48,1.75E0);
#54=CIRCLE('',#53,1.75E0);
#59=CIRCLE('',#58,1.75E0);
#64=CIRCLE('',#63,1.75E0);
#290=EDGE_CURVE('',#219,#220,#24,.T.);
#292=EDGE_CURVE('',#220,#222,#28,.T.);
#294=EDGE_CURVE('',#222,#224,#32,.T.);
#296=EDGE_CURVE('',#224,#219,#36,.T.);
#300=EDGE_CURVE('',#239,#240,#15,.T.);
#302=EDGE_CURVE('',#240,#239,#20,.T.);
#306=EDGE_CURVE('',#235,#236,#5,.T.);
#308=EDGE_CURVE('',#236,#235,#10,.T.);
#312=ADVANCED_FACE('',(#299,#305,#311),#289,.F.);
#319=EDGE_CURVE('',#235,#243,#40,.T.);
#321=EDGE_CURVE('',#243,#244,#49,.T.);
#323=EDGE_CURVE('',#236,#244,#44,.T.);
#327=ADVANCED_FACE('',(#326),#317,.F.);
#335=EDGE_CURVE('',#244,#243,#54,.T.);
#340=ADVANCED_FACE('',(#339),#332,.F.);
#346=EDGE_CURVE('',#259,#260,#68,.T.);
#348=EDGE_CURVE('',#228,#259,#72,.T.);
#350=EDGE_CURVE('',#227,#228,#76,.T.);
#352=EDGE_CURVE('',#260,#227,#80,.T.);
#356=EDGE_CURVE('',#247,#248,#59,.T.);
#358=EDGE_CURVE('',#248,#247,#64,.T.);
#362=ADVANCED_FACE('',(#355,#361),#345,.T.);
#368=EDGE_CURVE('',#263,#264,#84,.T.);
#370=EDGE_CURVE('',#232,#264,#88,.T.);
#372=EDGE_CURVE('',#231,#232,#92,.T.);
#374=EDGE_CURVE('',#263,#231,#96,.T.);
#382=ADVANCED_FACE('',(#377,#381),#367,.T.);
#389=EDGE_CURVE('',#239,#247,#100,.T.);
#392=EDGE_CURVE('',#240,#248,#104,.T.);
#396=ADVANCED_FACE('',(#395),#387,.F.);
#408=ADVANCED_FACE('',(#407),#401,.F.);
#415=EDGE_CURVE('',#260,#251,#108,.T.);
#417=EDGE_CURVE('',#251,#252,#140,.T.);
#419=EDGE_CURVE('',#259,#252,#132,.T.);
#423=ADVANCED_FACE('',(#422),#413,.T.);
#430=EDGE_CURVE('',#264,#256,#112,.T.);
#432=EDGE_CURVE('',#256,#251,#144,.T.);
#436=EDGE_CURVE('',#219,#227,#216,.T.);
#439=EDGE_CURVE('',#224,#232,#116,.T.);
#443=ADVANCED_FACE('',(#442),#428,.T.);
#450=EDGE_CURVE('',#263,#255,#120,.T.);
#452=EDGE_CURVE('',#255,#256,#148,.T.);
#457=ADVANCED_FACE('',(#456),#448,.T.);
#463=EDGE_CURVE('',#252,#278,#136,.T.);
#465=EDGE_CURVE('',#278,#280,#124,.T.);
#467=EDGE_CURVE('',#280,#255,#152,.T.);
#471=EDGE_CURVE('',#222,#231,#212,.T.);
#474=EDGE_CURVE('',#220,#228,#128,.T.);
#480=ADVANCED_FACE('',(#479),#462,.T.);
#491=EDGE_CURVE('',#280,#284,#156,.T.);
#493=EDGE_CURVE('',#284,#282,#160,.T.);
#495=EDGE_CURVE('',#278,#282,#164,.T.);
#499=ADVANCED_FACE('',(#498),#485,.T.);
#505=EDGE_CURVE('',#276,#280,#180,.T.);
#507=EDGE_CURVE('',#270,#276,#168,.T.);
#509=EDGE_CURVE('',#270,#272,#200,.T.);
#511=EDGE_CURVE('',#272,#284,#188,.T.);
#516=ADVANCED_FACE('',(#515),#504,.T.);
#522=EDGE_CURVE('',#278,#275,#172,.T.);
#524=EDGE_CURVE('',#275,#276,#176,.T.);
#530=ADVANCED_FACE('',(#529),#521,.F.);
#538=EDGE_CURVE('',#267,#282,#184,.T.);
#540=EDGE_CURVE('',#267,#268,#192,.T.);
#542=EDGE_CURVE('',#268,#275,#208,.T.);
#546=ADVANCED_FACE('',(#545),#535,.T.);
#554=EDGE_CURVE('',#272,#267,#196,.T.);
#559=ADVANCED_FACE('',(#558),#551,.T.);
#568=EDGE_CURVE('',#268,#270,#204,.T.);
#572=ADVANCED_FACE('',(#571),#564,.T.);
#584=ADVANCED_FACE('',(#583),#577,.T.);
#596=ADVANCED_FACE('',(#595),#589,.T.);
#608=ADVANCED_FACE('',(#607),#601,.T.);
#611=(LENGTH_UNIT()NAMED_UNIT(*)SI_UNIT(.MILLI.,.METRE.));
#613=(NAMED_UNIT(*)PLANE_ANGLE_UNIT()SI_UNIT($,.RADIAN.));
#616=(NAMED_UNIT(*)SI_UNIT($,.STERADIAN.)SOLID_ANGLE_UNIT());
#618=(GEOMETRIC_REPRESENTATION_CONTEXT(3)GLOBAL_UNCERTAINTY_ASSIGNED_CONTEXT((
#617))GLOBAL_UNIT_ASSIGNED_CONTEXT((#611,#615,#616))REPRESENTATION_CONTEXT
('ID1','3'));
#619=ADVANCED_BREP_SHAPE_REPRESENTATION('',(#610),#618);
#626=PRODUCT_DEFINITION('design','',#625,#622);
#627=PRODUCT_DEFINITION_SHAPE('','SHAPE FOR CHF9838CNF.',#626);
#628=SHAPE_DEFINITION_REPRESENTATION(#627,#619);
ENDSEC;
END-ISO-10303-21;
