ISO-10303-21;
HEADER;
FILE_DESCRIPTION((''),'2;1');
FILE_NAME('CRA2010','2012-08-17T',('ryans'),('Bourns, Inc.'),
'PRO/ENGINEER BY PARAMETRIC TECHNOLOGY CORPORATION, 2010100',
'PRO/ENGINEER BY PARAMETRIC TECHNOLOGY CORPORATION, 2010100','');
FILE_SCHEMA(('CONFIG_CONTROL_DESIGN'));
ENDSEC;
DATA;
#1=DIRECTION('',(0.E0,0.E0,-1.E0));
#2=VECTOR('',#1,1.65E0);
#3=CARTESIAN_POINT('',(1.1E0,-2.5E-1,8.25E-1));
#4=LINE('',#3,#2);
#5=DIRECTION('',(-1.E0,0.E0,0.E0));
#6=VECTOR('',#5,2.2E0);
#7=CARTESIAN_POINT('',(1.1E0,-2.5E-1,-8.25E-1));
#8=LINE('',#7,#6);
#9=DIRECTION('',(0.E0,0.E0,-1.E0));
#10=VECTOR('',#9,1.65E0);
#11=CARTESIAN_POINT('',(-1.1E0,-2.5E-1,8.25E-1));
#12=LINE('',#11,#10);
#13=DIRECTION('',(1.E0,0.E0,0.E0));
#14=VECTOR('',#13,2.2E0);
#15=CARTESIAN_POINT('',(-1.1E0,-2.5E-1,8.25E-1));
#16=LINE('',#15,#14);
#17=DIRECTION('',(0.E0,1.E0,0.E0));
#18=VECTOR('',#17,5.E-2);
#19=CARTESIAN_POINT('',(1.1E0,-3.E-1,-8.25E-1));
#20=LINE('',#19,#18);
#21=DIRECTION('',(0.E0,1.E0,0.E0));
#22=VECTOR('',#21,5.E-2);
#23=CARTESIAN_POINT('',(1.1E0,2.5E-1,-8.25E-1));
#24=LINE('',#23,#22);
#25=DIRECTION('',(0.E0,1.E0,0.E0));
#26=VECTOR('',#25,5.E-2);
#27=CARTESIAN_POINT('',(1.1E0,2.5E-1,8.25E-1));
#28=LINE('',#27,#26);
#29=DIRECTION('',(0.E0,1.E0,0.E0));
#30=VECTOR('',#29,5.E-2);
#31=CARTESIAN_POINT('',(1.1E0,-3.E-1,8.25E-1));
#32=LINE('',#31,#30);
#33=DIRECTION('',(0.E0,1.E0,0.E0));
#34=VECTOR('',#33,6.E-1);
#35=CARTESIAN_POINT('',(-1.6E0,-3.E-1,-8.25E-1));
#36=LINE('',#35,#34);
#37=DIRECTION('',(0.E0,-1.E0,0.E0));
#38=VECTOR('',#37,6.E-1);
#39=CARTESIAN_POINT('',(-1.6E0,3.E-1,8.25E-1));
#40=LINE('',#39,#38);
#41=DIRECTION('',(0.E0,1.E0,0.E0));
#42=VECTOR('',#41,5.E-2);
#43=CARTESIAN_POINT('',(-1.1E0,2.5E-1,-8.25E-1));
#44=LINE('',#43,#42);
#45=DIRECTION('',(0.E0,1.E0,0.E0));
#46=VECTOR('',#45,5.E-2);
#47=CARTESIAN_POINT('',(-1.1E0,-3.E-1,-8.25E-1));
#48=LINE('',#47,#46);
#49=DIRECTION('',(0.E0,1.E0,0.E0));
#50=VECTOR('',#49,6.E-1);
#51=CARTESIAN_POINT('',(1.6E0,-3.E-1,-8.25E-1));
#52=LINE('',#51,#50);
#53=DIRECTION('',(0.E0,0.E0,-1.E0));
#54=VECTOR('',#53,1.65E0);
#55=CARTESIAN_POINT('',(1.1E0,2.5E-1,8.25E-1));
#56=LINE('',#55,#54);
#57=DIRECTION('',(1.E0,0.E0,0.E0));
#58=VECTOR('',#57,2.2E0);
#59=CARTESIAN_POINT('',(-1.1E0,2.5E-1,8.25E-1));
#60=LINE('',#59,#58);
#61=DIRECTION('',(0.E0,0.E0,-1.E0));
#62=VECTOR('',#61,1.65E0);
#63=CARTESIAN_POINT('',(-1.1E0,2.5E-1,8.25E-1));
#64=LINE('',#63,#62);
#65=DIRECTION('',(-1.E0,0.E0,0.E0));
#66=VECTOR('',#65,2.2E0);
#67=CARTESIAN_POINT('',(1.1E0,2.5E-1,-8.25E-1));
#68=LINE('',#67,#66);
#69=DIRECTION('',(0.E0,1.E0,0.E0));
#70=VECTOR('',#69,5.E-2);
#71=CARTESIAN_POINT('',(-1.1E0,-3.E-1,8.25E-1));
#72=LINE('',#71,#70);
#73=DIRECTION('',(0.E0,1.E0,0.E0));
#74=VECTOR('',#73,5.E-2);
#75=CARTESIAN_POINT('',(-1.1E0,2.5E-1,8.25E-1));
#76=LINE('',#75,#74);
#77=DIRECTION('',(0.E0,0.E0,1.E0));
#78=VECTOR('',#77,1.65E0);
#79=CARTESIAN_POINT('',(1.1E0,-3.E-1,-8.25E-1));
#80=LINE('',#79,#78);
#81=DIRECTION('',(1.E0,0.E0,0.E0));
#82=VECTOR('',#81,5.E-1);
#83=CARTESIAN_POINT('',(1.1E0,-3.E-1,8.25E-1));
#84=LINE('',#83,#82);
#85=DIRECTION('',(0.E0,0.E0,-1.E0));
#86=VECTOR('',#85,1.65E0);
#87=CARTESIAN_POINT('',(1.6E0,-3.E-1,8.25E-1));
#88=LINE('',#87,#86);
#89=DIRECTION('',(-1.E0,0.E0,0.E0));
#90=VECTOR('',#89,5.E-1);
#91=CARTESIAN_POINT('',(1.6E0,-3.E-1,-8.25E-1));
#92=LINE('',#91,#90);
#93=DIRECTION('',(-1.E0,0.E0,0.E0));
#94=VECTOR('',#93,5.E-1);
#95=CARTESIAN_POINT('',(-1.1E0,-3.E-1,-8.25E-1));
#96=LINE('',#95,#94);
#97=DIRECTION('',(0.E0,0.E0,1.E0));
#98=VECTOR('',#97,1.65E0);
#99=CARTESIAN_POINT('',(-1.6E0,-3.E-1,-8.25E-1));
#100=LINE('',#99,#98);
#101=DIRECTION('',(1.E0,0.E0,0.E0));
#102=VECTOR('',#101,5.E-1);
#103=CARTESIAN_POINT('',(-1.6E0,-3.E-1,8.25E-1));
#104=LINE('',#103,#102);
#105=DIRECTION('',(0.E0,0.E0,-1.E0));
#106=VECTOR('',#105,1.65E0);
#107=CARTESIAN_POINT('',(-1.1E0,-3.E-1,8.25E-1));
#108=LINE('',#107,#106);
#109=DIRECTION('',(0.E0,1.E0,0.E0));
#110=VECTOR('',#109,6.E-1);
#111=CARTESIAN_POINT('',(1.6E0,-3.E-1,8.25E-1));
#112=LINE('',#111,#110);
#113=DIRECTION('',(0.E0,0.E0,1.E0));
#114=VECTOR('',#113,1.65E0);
#115=CARTESIAN_POINT('',(1.1E0,3.E-1,-8.25E-1));
#116=LINE('',#115,#114);
#117=DIRECTION('',(-1.E0,0.E0,0.E0));
#118=VECTOR('',#117,5.E-1);
#119=CARTESIAN_POINT('',(1.6E0,3.E-1,-8.25E-1));
#120=LINE('',#119,#118);
#121=DIRECTION('',(0.E0,0.E0,-1.E0));
#122=VECTOR('',#121,1.65E0);
#123=CARTESIAN_POINT('',(1.6E0,3.E-1,8.25E-1));
#124=LINE('',#123,#122);
#125=DIRECTION('',(1.E0,0.E0,0.E0));
#126=VECTOR('',#125,5.E-1);
#127=CARTESIAN_POINT('',(1.1E0,3.E-1,8.25E-1));
#128=LINE('',#127,#126);
#129=DIRECTION('',(-1.E0,0.E0,0.E0));
#130=VECTOR('',#129,5.E-1);
#131=CARTESIAN_POINT('',(-1.1E0,3.E-1,-8.25E-1));
#132=LINE('',#131,#130);
#133=DIRECTION('',(0.E0,0.E0,-1.E0));
#134=VECTOR('',#133,1.65E0);
#135=CARTESIAN_POINT('',(-1.1E0,3.E-1,8.25E-1));
#136=LINE('',#135,#134);
#137=DIRECTION('',(1.E0,0.E0,0.E0));
#138=VECTOR('',#137,5.E-1);
#139=CARTESIAN_POINT('',(-1.6E0,3.E-1,8.25E-1));
#140=LINE('',#139,#138);
#141=DIRECTION('',(0.E0,0.E0,1.E0));
#142=VECTOR('',#141,1.65E0);
#143=CARTESIAN_POINT('',(-1.6E0,3.E-1,-8.25E-1));
#144=LINE('',#143,#142);
#145=CARTESIAN_POINT('',(1.1E0,-3.E-1,-8.25E-1));
#146=CARTESIAN_POINT('',(1.1E0,-3.E-1,8.25E-1));
#147=VERTEX_POINT('',#145);
#148=VERTEX_POINT('',#146);
#149=CARTESIAN_POINT('',(1.6E0,-3.E-1,8.25E-1));
#150=VERTEX_POINT('',#149);
#151=CARTESIAN_POINT('',(1.6E0,-3.E-1,-8.25E-1));
#152=VERTEX_POINT('',#151);
#153=CARTESIAN_POINT('',(-1.1E0,-3.E-1,-8.25E-1));
#154=CARTESIAN_POINT('',(-1.6E0,-3.E-1,-8.25E-1));
#155=VERTEX_POINT('',#153);
#156=VERTEX_POINT('',#154);
#157=CARTESIAN_POINT('',(-1.6E0,-3.E-1,8.25E-1));
#158=VERTEX_POINT('',#157);
#159=CARTESIAN_POINT('',(-1.1E0,-3.E-1,8.25E-1));
#160=VERTEX_POINT('',#159);
#161=CARTESIAN_POINT('',(1.1E0,3.E-1,-8.25E-1));
#162=CARTESIAN_POINT('',(1.1E0,3.E-1,8.25E-1));
#163=VERTEX_POINT('',#161);
#164=VERTEX_POINT('',#162);
#165=CARTESIAN_POINT('',(1.6E0,3.E-1,8.25E-1));
#166=VERTEX_POINT('',#165);
#167=CARTESIAN_POINT('',(1.6E0,3.E-1,-8.25E-1));
#168=VERTEX_POINT('',#167);
#169=CARTESIAN_POINT('',(-1.1E0,3.E-1,-8.25E-1));
#170=CARTESIAN_POINT('',(-1.6E0,3.E-1,-8.25E-1));
#171=VERTEX_POINT('',#169);
#172=VERTEX_POINT('',#170);
#173=CARTESIAN_POINT('',(-1.6E0,3.E-1,8.25E-1));
#174=VERTEX_POINT('',#173);
#175=CARTESIAN_POINT('',(-1.1E0,3.E-1,8.25E-1));
#176=VERTEX_POINT('',#175);
#177=CARTESIAN_POINT('',(1.1E0,-2.5E-1,8.25E-1));
#178=CARTESIAN_POINT('',(1.1E0,-2.5E-1,-8.25E-1));
#179=VERTEX_POINT('',#177);
#180=VERTEX_POINT('',#178);
#181=CARTESIAN_POINT('',(-1.1E0,-2.5E-1,8.25E-1));
#182=CARTESIAN_POINT('',(-1.1E0,-2.5E-1,-8.25E-1));
#183=VERTEX_POINT('',#181);
#184=VERTEX_POINT('',#182);
#185=CARTESIAN_POINT('',(1.1E0,2.5E-1,8.25E-1));
#186=CARTESIAN_POINT('',(1.1E0,2.5E-1,-8.25E-1));
#187=VERTEX_POINT('',#185);
#188=VERTEX_POINT('',#186);
#189=CARTESIAN_POINT('',(-1.1E0,2.5E-1,8.25E-1));
#190=CARTESIAN_POINT('',(-1.1E0,2.5E-1,-8.25E-1));
#191=VERTEX_POINT('',#189);
#192=VERTEX_POINT('',#190);
#193=CARTESIAN_POINT('',(0.E0,-2.5E-1,0.E0));
#194=DIRECTION('',(0.E0,1.E0,0.E0));
#195=DIRECTION('',(1.E0,0.E0,0.E0));
#196=AXIS2_PLACEMENT_3D('',#193,#194,#195);
#197=PLANE('',#196);
#199=ORIENTED_EDGE('',*,*,#198,.T.);
#201=ORIENTED_EDGE('',*,*,#200,.T.);
#203=ORIENTED_EDGE('',*,*,#202,.F.);
#205=ORIENTED_EDGE('',*,*,#204,.T.);
#206=EDGE_LOOP('',(#199,#201,#203,#205));
#207=FACE_OUTER_BOUND('',#206,.F.);
#209=CARTESIAN_POINT('',(1.1E0,-3.E-1,-8.25E-1));
#210=DIRECTION('',(-1.E0,0.E0,0.E0));
#211=DIRECTION('',(0.E0,0.E0,1.E0));
#212=AXIS2_PLACEMENT_3D('',#209,#210,#211);
#213=PLANE('',#212);
#214=ORIENTED_EDGE('',*,*,#198,.F.);
#216=ORIENTED_EDGE('',*,*,#215,.F.);
#218=ORIENTED_EDGE('',*,*,#217,.F.);
#220=ORIENTED_EDGE('',*,*,#219,.T.);
#221=EDGE_LOOP('',(#214,#216,#218,#220));
#222=FACE_OUTER_BOUND('',#221,.F.);
#224=CARTESIAN_POINT('',(1.1E0,-3.E-1,-8.25E-1));
#225=DIRECTION('',(-1.E0,0.E0,0.E0));
#226=DIRECTION('',(0.E0,0.E0,1.E0));
#227=AXIS2_PLACEMENT_3D('',#224,#225,#226);
#228=PLANE('',#227);
#230=ORIENTED_EDGE('',*,*,#229,.T.);
#232=ORIENTED_EDGE('',*,*,#231,.T.);
#234=ORIENTED_EDGE('',*,*,#233,.T.);
#236=ORIENTED_EDGE('',*,*,#235,.F.);
#237=EDGE_LOOP('',(#230,#232,#234,#236));
#238=FACE_OUTER_BOUND('',#237,.F.);
#240=CARTESIAN_POINT('',(-1.6E0,-2.5E-1,8.25E-1));
#241=DIRECTION('',(0.E0,0.E0,1.E0));
#242=DIRECTION('',(1.E0,0.E0,0.E0));
#243=AXIS2_PLACEMENT_3D('',#240,#241,#242);
#244=PLANE('',#243);
#246=ORIENTED_EDGE('',*,*,#245,.F.);
#248=ORIENTED_EDGE('',*,*,#247,.T.);
#250=ORIENTED_EDGE('',*,*,#249,.F.);
#252=ORIENTED_EDGE('',*,*,#251,.T.);
#253=ORIENTED_EDGE('',*,*,#235,.T.);
#255=ORIENTED_EDGE('',*,*,#254,.T.);
#257=ORIENTED_EDGE('',*,*,#256,.F.);
#259=ORIENTED_EDGE('',*,*,#258,.F.);
#260=ORIENTED_EDGE('',*,*,#215,.T.);
#261=ORIENTED_EDGE('',*,*,#204,.F.);
#263=ORIENTED_EDGE('',*,*,#262,.F.);
#265=ORIENTED_EDGE('',*,*,#264,.F.);
#266=EDGE_LOOP('',(#246,#248,#250,#252,#253,#255,#257,#259,#260,#261,#263,
#265));
#267=FACE_OUTER_BOUND('',#266,.F.);
#269=CARTESIAN_POINT('',(-1.6E0,-2.5E-1,-8.25E-1));
#270=DIRECTION('',(-1.E0,0.E0,0.E0));
#271=DIRECTION('',(0.E0,0.E0,1.E0));
#272=AXIS2_PLACEMENT_3D('',#269,#270,#271);
#273=PLANE('',#272);
#275=ORIENTED_EDGE('',*,*,#274,.T.);
#277=ORIENTED_EDGE('',*,*,#276,.T.);
#278=ORIENTED_EDGE('',*,*,#245,.T.);
#280=ORIENTED_EDGE('',*,*,#279,.F.);
#281=EDGE_LOOP('',(#275,#277,#278,#280));
#282=FACE_OUTER_BOUND('',#281,.F.);
#284=CARTESIAN_POINT('',(1.6E0,-2.5E-1,-8.25E-1));
#285=DIRECTION('',(0.E0,0.E0,-1.E0));
#286=DIRECTION('',(-1.E0,0.E0,0.E0));
#287=AXIS2_PLACEMENT_3D('',#284,#285,#286);
#288=PLANE('',#287);
#290=ORIENTED_EDGE('',*,*,#289,.T.);
#292=ORIENTED_EDGE('',*,*,#291,.T.);
#294=ORIENTED_EDGE('',*,*,#293,.T.);
#295=ORIENTED_EDGE('',*,*,#274,.F.);
#297=ORIENTED_EDGE('',*,*,#296,.F.);
#299=ORIENTED_EDGE('',*,*,#298,.T.);
#300=ORIENTED_EDGE('',*,*,#200,.F.);
#301=ORIENTED_EDGE('',*,*,#219,.F.);
#303=ORIENTED_EDGE('',*,*,#302,.F.);
#305=ORIENTED_EDGE('',*,*,#304,.T.);
#307=ORIENTED_EDGE('',*,*,#306,.T.);
#308=ORIENTED_EDGE('',*,*,#231,.F.);
#309=EDGE_LOOP('',(#290,#292,#294,#295,#297,#299,#300,#301,#303,#305,#307,
#308));
#310=FACE_OUTER_BOUND('',#309,.F.);
#312=CARTESIAN_POINT('',(0.E0,2.5E-1,0.E0));
#313=DIRECTION('',(0.E0,1.E0,0.E0));
#314=DIRECTION('',(1.E0,0.E0,0.E0));
#315=AXIS2_PLACEMENT_3D('',#312,#313,#314);
#316=PLANE('',#315);
#317=ORIENTED_EDGE('',*,*,#229,.F.);
#318=ORIENTED_EDGE('',*,*,#251,.F.);
#320=ORIENTED_EDGE('',*,*,#319,.T.);
#321=ORIENTED_EDGE('',*,*,#289,.F.);
#322=EDGE_LOOP('',(#317,#318,#320,#321));
#323=FACE_OUTER_BOUND('',#322,.F.);
#325=CARTESIAN_POINT('',(-1.1E0,-3.E-1,8.25E-1));
#326=DIRECTION('',(1.E0,0.E0,0.E0));
#327=DIRECTION('',(0.E0,0.E0,-1.E0));
#328=AXIS2_PLACEMENT_3D('',#325,#326,#327);
#329=PLANE('',#328);
#330=ORIENTED_EDGE('',*,*,#202,.T.);
#331=ORIENTED_EDGE('',*,*,#298,.F.);
#333=ORIENTED_EDGE('',*,*,#332,.F.);
#334=ORIENTED_EDGE('',*,*,#262,.T.);
#335=EDGE_LOOP('',(#330,#331,#333,#334));
#336=FACE_OUTER_BOUND('',#335,.F.);
#338=CARTESIAN_POINT('',(-1.1E0,-3.E-1,8.25E-1));
#339=DIRECTION('',(1.E0,0.E0,0.E0));
#340=DIRECTION('',(0.E0,0.E0,-1.E0));
#341=AXIS2_PLACEMENT_3D('',#338,#339,#340);
#342=PLANE('',#341);
#343=ORIENTED_EDGE('',*,*,#319,.F.);
#344=ORIENTED_EDGE('',*,*,#249,.T.);
#346=ORIENTED_EDGE('',*,*,#345,.T.);
#347=ORIENTED_EDGE('',*,*,#291,.F.);
#348=EDGE_LOOP('',(#343,#344,#346,#347));
#349=FACE_OUTER_BOUND('',#348,.F.);
#351=CARTESIAN_POINT('',(0.E0,-3.E-1,0.E0));
#352=DIRECTION('',(0.E0,1.E0,0.E0));
#353=DIRECTION('',(1.E0,0.E0,0.E0));
#354=AXIS2_PLACEMENT_3D('',#351,#352,#353);
#355=PLANE('',#354);
#356=ORIENTED_EDGE('',*,*,#217,.T.);
#357=ORIENTED_EDGE('',*,*,#258,.T.);
#359=ORIENTED_EDGE('',*,*,#358,.T.);
#360=ORIENTED_EDGE('',*,*,#302,.T.);
#361=EDGE_LOOP('',(#356,#357,#359,#360));
#362=FACE_OUTER_BOUND('',#361,.F.);
#364=CARTESIAN_POINT('',(0.E0,-3.E-1,0.E0));
#365=DIRECTION('',(0.E0,1.E0,0.E0));
#366=DIRECTION('',(1.E0,0.E0,0.E0));
#367=AXIS2_PLACEMENT_3D('',#364,#365,#366);
#368=PLANE('',#367);
#369=ORIENTED_EDGE('',*,*,#296,.T.);
#370=ORIENTED_EDGE('',*,*,#279,.T.);
#371=ORIENTED_EDGE('',*,*,#264,.T.);
#372=ORIENTED_EDGE('',*,*,#332,.T.);
#373=EDGE_LOOP('',(#369,#370,#371,#372));
#374=FACE_OUTER_BOUND('',#373,.F.);
#376=CARTESIAN_POINT('',(1.6E0,-2.5E-1,8.25E-1));
#377=DIRECTION('',(1.E0,0.E0,0.E0));
#378=DIRECTION('',(0.E0,0.E0,-1.E0));
#379=AXIS2_PLACEMENT_3D('',#376,#377,#378);
#380=PLANE('',#379);
#381=ORIENTED_EDGE('',*,*,#256,.T.);
#383=ORIENTED_EDGE('',*,*,#382,.T.);
#384=ORIENTED_EDGE('',*,*,#304,.F.);
#385=ORIENTED_EDGE('',*,*,#358,.F.);
#386=EDGE_LOOP('',(#381,#383,#384,#385));
#387=FACE_OUTER_BOUND('',#386,.F.);
#389=CARTESIAN_POINT('',(0.E0,3.E-1,0.E0));
#390=DIRECTION('',(0.E0,1.E0,0.E0));
#391=DIRECTION('',(1.E0,0.E0,0.E0));
#392=AXIS2_PLACEMENT_3D('',#389,#390,#391);
#393=PLANE('',#392);
#394=ORIENTED_EDGE('',*,*,#233,.F.);
#395=ORIENTED_EDGE('',*,*,#306,.F.);
#396=ORIENTED_EDGE('',*,*,#382,.F.);
#397=ORIENTED_EDGE('',*,*,#254,.F.);
#398=EDGE_LOOP('',(#394,#395,#396,#397));
#399=FACE_OUTER_BOUND('',#398,.F.);
#401=CARTESIAN_POINT('',(0.E0,3.E-1,0.E0));
#402=DIRECTION('',(0.E0,1.E0,0.E0));
#403=DIRECTION('',(1.E0,0.E0,0.E0));
#404=AXIS2_PLACEMENT_3D('',#401,#402,#403);
#405=PLANE('',#404);
#406=ORIENTED_EDGE('',*,*,#293,.F.);
#407=ORIENTED_EDGE('',*,*,#345,.F.);
#408=ORIENTED_EDGE('',*,*,#247,.F.);
#409=ORIENTED_EDGE('',*,*,#276,.F.);
#410=EDGE_LOOP('',(#406,#407,#408,#409));
#411=FACE_OUTER_BOUND('',#410,.F.);
#413=CLOSED_SHELL('',(#208,#223,#239,#268,#283,#311,#324,#337,#350,#363,#375,
#388,#400,#412));
#414=MANIFOLD_SOLID_BREP('',#413);
#416=DIMENSIONAL_EXPONENTS(0.E0,0.E0,0.E0,0.E0,0.E0,0.E0,0.E0);
#418=PLANE_ANGLE_MEASURE_WITH_UNIT(PLANE_ANGLE_MEASURE(1.745329251994E-2),#417);
#419=(CONVERSION_BASED_UNIT('DEGREE',#418)NAMED_UNIT(*)PLANE_ANGLE_UNIT());
#421=UNCERTAINTY_MEASURE_WITH_UNIT(LENGTH_MEASURE(1.5207725E-4),#415,'closure',
'Maximum model space distance between geometric entities at asserted connectivities');
#424=APPLICATION_CONTEXT(
'CONFIGURATION CONTROLLED 3D DESIGNS OF MECHANICAL PARTS AND ASSEMBLIES');
#425=APPLICATION_PROTOCOL_DEFINITION('international standard',
'config_control_design',1994,#424);
#426=DESIGN_CONTEXT('',#424,'design');
#427=MECHANICAL_CONTEXT('',#424,'mechanical');
#428=PRODUCT('CRA2010','CRA2010','NOT SPECIFIED',(#427));
#429=PRODUCT_DEFINITION_FORMATION_WITH_SPECIFIED_SOURCE('1','LAST_VERSION',#428,
.MADE.);
#433=PRODUCT_CATEGORY('part','');
#434=PRODUCT_RELATED_PRODUCT_CATEGORY('detail','',(#428));
#435=PRODUCT_CATEGORY_RELATIONSHIP('','',#433,#434);
#436=SECURITY_CLASSIFICATION_LEVEL('unclassified');
#437=SECURITY_CLASSIFICATION('','',#436);
#438=CC_DESIGN_SECURITY_CLASSIFICATION(#437,(#429));
#439=APPROVAL_STATUS('approved');
#440=APPROVAL(#439,'');
#441=CC_DESIGN_APPROVAL(#440,(#437,#429,#430));
#442=CALENDAR_DATE(112,17,8);
#443=COORDINATED_UNIVERSAL_TIME_OFFSET(7,0,.BEHIND.);
#444=LOCAL_TIME(9,5,3.3E1,#443);
#445=DATE_AND_TIME(#442,#444);
#446=APPROVAL_DATE_TIME(#445,#440);
#447=DATE_TIME_ROLE('creation_date');
#448=CC_DESIGN_DATE_AND_TIME_ASSIGNMENT(#445,#447,(#430));
#449=DATE_TIME_ROLE('classification_date');
#450=CC_DESIGN_DATE_AND_TIME_ASSIGNMENT(#445,#449,(#437));
#451=PERSON('UNSPECIFIED','UNSPECIFIED',$,$,$,$);
#452=ORGANIZATION('UNSPECIFIED','UNSPECIFIED','UNSPECIFIED');
#453=PERSON_AND_ORGANIZATION(#451,#452);
#454=APPROVAL_ROLE('approver');
#455=APPROVAL_PERSON_ORGANIZATION(#453,#440,#454);
#456=PERSON_AND_ORGANIZATION_ROLE('creator');
#457=CC_DESIGN_PERSON_AND_ORGANIZATION_ASSIGNMENT(#453,#456,(#429,#430));
#458=PERSON_AND_ORGANIZATION_ROLE('design_supplier');
#459=CC_DESIGN_PERSON_AND_ORGANIZATION_ASSIGNMENT(#453,#458,(#429));
#460=PERSON_AND_ORGANIZATION_ROLE('classification_officer');
#461=CC_DESIGN_PERSON_AND_ORGANIZATION_ASSIGNMENT(#453,#460,(#437));
#462=PERSON_AND_ORGANIZATION_ROLE('design_owner');
#463=CC_DESIGN_PERSON_AND_ORGANIZATION_ASSIGNMENT(#453,#462,(#428));
#198=EDGE_CURVE('',#179,#180,#4,.T.);
#200=EDGE_CURVE('',#180,#184,#8,.T.);
#202=EDGE_CURVE('',#183,#184,#12,.T.);
#204=EDGE_CURVE('',#183,#179,#16,.T.);
#208=ADVANCED_FACE('',(#207),#197,.F.);
#215=EDGE_CURVE('',#148,#179,#32,.T.);
#217=EDGE_CURVE('',#147,#148,#80,.T.);
#219=EDGE_CURVE('',#147,#180,#20,.T.);
#223=ADVANCED_FACE('',(#222),#213,.T.);
#229=EDGE_CURVE('',#187,#188,#56,.T.);
#231=EDGE_CURVE('',#188,#163,#24,.T.);
#233=EDGE_CURVE('',#163,#164,#116,.T.);
#235=EDGE_CURVE('',#187,#164,#28,.T.);
#239=ADVANCED_FACE('',(#238),#228,.T.);
#245=EDGE_CURVE('',#174,#158,#40,.T.);
#247=EDGE_CURVE('',#174,#176,#140,.T.);
#249=EDGE_CURVE('',#191,#176,#76,.T.);
#251=EDGE_CURVE('',#191,#187,#60,.T.);
#254=EDGE_CURVE('',#164,#166,#128,.T.);
#256=EDGE_CURVE('',#150,#166,#112,.T.);
#258=EDGE_CURVE('',#148,#150,#84,.T.);
#262=EDGE_CURVE('',#160,#183,#72,.T.);
#264=EDGE_CURVE('',#158,#160,#104,.T.);
#268=ADVANCED_FACE('',(#267),#244,.T.);
#274=EDGE_CURVE('',#156,#172,#36,.T.);
#276=EDGE_CURVE('',#172,#174,#144,.T.);
#279=EDGE_CURVE('',#156,#158,#100,.T.);
#283=ADVANCED_FACE('',(#282),#273,.T.);
#289=EDGE_CURVE('',#188,#192,#68,.T.);
#291=EDGE_CURVE('',#192,#171,#44,.T.);
#293=EDGE_CURVE('',#171,#172,#132,.T.);
#296=EDGE_CURVE('',#155,#156,#96,.T.);
#298=EDGE_CURVE('',#155,#184,#48,.T.);
#302=EDGE_CURVE('',#152,#147,#92,.T.);
#304=EDGE_CURVE('',#152,#168,#52,.T.);
#306=EDGE_CURVE('',#168,#163,#120,.T.);
#311=ADVANCED_FACE('',(#310),#288,.T.);
#319=EDGE_CURVE('',#191,#192,#64,.T.);
#324=ADVANCED_FACE('',(#323),#316,.T.);
#332=EDGE_CURVE('',#160,#155,#108,.T.);
#337=ADVANCED_FACE('',(#336),#329,.T.);
#345=EDGE_CURVE('',#176,#171,#136,.T.);
#350=ADVANCED_FACE('',(#349),#342,.T.);
#358=EDGE_CURVE('',#150,#152,#88,.T.);
#363=ADVANCED_FACE('',(#362),#355,.F.);
#375=ADVANCED_FACE('',(#374),#368,.F.);
#382=EDGE_CURVE('',#166,#168,#124,.T.);
#388=ADVANCED_FACE('',(#387),#380,.T.);
#400=ADVANCED_FACE('',(#399),#393,.T.);
#412=ADVANCED_FACE('',(#411),#405,.T.);
#415=(LENGTH_UNIT()NAMED_UNIT(*)SI_UNIT(.MILLI.,.METRE.));
#417=(NAMED_UNIT(*)PLANE_ANGLE_UNIT()SI_UNIT($,.RADIAN.));
#420=(NAMED_UNIT(*)SI_UNIT($,.STERADIAN.)SOLID_ANGLE_UNIT());
#422=(GEOMETRIC_REPRESENTATION_CONTEXT(3)GLOBAL_UNCERTAINTY_ASSIGNED_CONTEXT((
#421))GLOBAL_UNIT_ASSIGNED_CONTEXT((#415,#419,#420))REPRESENTATION_CONTEXT
('ID1','3'));
#423=ADVANCED_BREP_SHAPE_REPRESENTATION('',(#414),#422);
#430=PRODUCT_DEFINITION('design','',#429,#426);
#431=PRODUCT_DEFINITION_SHAPE('','SHAPE FOR CRA2010.',#430);
#432=SHAPE_DEFINITION_REPRESENTATION(#431,#423);
ENDSEC;
END-ISO-10303-21;
