ISO-10303-21;
HEADER;
FILE_DESCRIPTION((''),'2;1');
FILE_NAME('FW50A','2012-12-19T',('ryans'),('Bourns, Inc.'),
'PRO/ENGINEER BY PARAMETRIC TECHNOLOGY CORPORATION, 2012230',
'PRO/ENGINEER BY PARAMETRIC TECHNOLOGY CORPORATION, 2012230','');
FILE_SCHEMA(('CONFIG_CONTROL_DESIGN'));
ENDSEC;
DATA;
#1=CARTESIAN_POINT('',(0.E0,0.E0,0.E0));
#2=DIRECTION('',(-1.E0,0.E0,0.E0));
#3=DIRECTION('',(0.E0,0.E0,1.E0));
#4=AXIS2_PLACEMENT_3D('',#1,#2,#3);
#6=CARTESIAN_POINT('',(0.E0,0.E0,0.E0));
#7=DIRECTION('',(-1.E0,0.E0,0.E0));
#8=DIRECTION('',(0.E0,0.E0,-1.E0));
#9=AXIS2_PLACEMENT_3D('',#6,#7,#8);
#11=CARTESIAN_POINT('',(0.E0,0.E0,0.E0));
#12=DIRECTION('',(-1.E0,0.E0,0.E0));
#13=DIRECTION('',(0.E0,1.E0,0.E0));
#14=AXIS2_PLACEMENT_3D('',#11,#12,#13);
#16=CARTESIAN_POINT('',(0.E0,0.E0,0.E0));
#17=DIRECTION('',(-1.E0,0.E0,0.E0));
#18=DIRECTION('',(0.E0,-1.E0,0.E0));
#19=AXIS2_PLACEMENT_3D('',#16,#17,#18);
#21=DIRECTION('',(-1.E0,0.E0,0.E0));
#22=VECTOR('',#21,2.8E1);
#23=CARTESIAN_POINT('',(0.E0,0.E0,3.75E-1));
#24=LINE('',#23,#22);
#25=DIRECTION('',(-1.E0,0.E0,0.E0));
#26=VECTOR('',#25,2.8E1);
#27=CARTESIAN_POINT('',(0.E0,0.E0,-3.75E-1));
#28=LINE('',#27,#26);
#29=CARTESIAN_POINT('',(-2.8E1,0.E0,0.E0));
#30=DIRECTION('',(-1.E0,0.E0,0.E0));
#31=DIRECTION('',(0.E0,0.E0,1.E0));
#32=AXIS2_PLACEMENT_3D('',#29,#30,#31);
#34=CARTESIAN_POINT('',(-2.8E1,0.E0,0.E0));
#35=DIRECTION('',(-1.E0,0.E0,0.E0));
#36=DIRECTION('',(0.E0,0.E0,-1.E0));
#37=AXIS2_PLACEMENT_3D('',#34,#35,#36);
#39=CARTESIAN_POINT('',(3.4E-1,3.41E0,0.E0));
#40=DIRECTION('',(0.E0,0.E0,-1.E0));
#41=DIRECTION('',(-1.E0,0.E0,0.E0));
#42=AXIS2_PLACEMENT_3D('',#39,#40,#41);
#44=CARTESIAN_POINT('',(3.4E-1,-3.41E0,0.E0));
#45=DIRECTION('',(0.E0,0.E0,1.E0));
#46=DIRECTION('',(-1.E0,0.E0,0.E0));
#47=AXIS2_PLACEMENT_3D('',#44,#45,#46);
#49=CARTESIAN_POINT('',(1.766E1,0.E0,0.E0));
#50=DIRECTION('',(1.E0,0.E0,0.E0));
#51=DIRECTION('',(0.E0,1.E0,0.E0));
#52=AXIS2_PLACEMENT_3D('',#49,#50,#51);
#54=CARTESIAN_POINT('',(3.4E-1,0.E0,0.E0));
#55=DIRECTION('',(-1.E0,0.E0,0.E0));
#56=DIRECTION('',(0.E0,-1.E0,0.E0));
#57=AXIS2_PLACEMENT_3D('',#54,#55,#56);
#59=DIRECTION('',(1.E0,0.E0,-4.562889131037E-12));
#60=VECTOR('',#59,1.732E1);
#61=CARTESIAN_POINT('',(3.4E-1,3.75E0,6.039401206974E-11));
#62=LINE('',#61,#60);
#63=CARTESIAN_POINT('',(1.766E1,3.41E0,0.E0));
#64=DIRECTION('',(0.E0,0.E0,1.E0));
#65=DIRECTION('',(1.E0,0.E0,0.E0));
#66=AXIS2_PLACEMENT_3D('',#63,#64,#65);
#68=CARTESIAN_POINT('',(1.8E1,0.E0,0.E0));
#69=DIRECTION('',(1.E0,0.E0,0.E0));
#70=DIRECTION('',(0.E0,-1.E0,0.E0));
#71=AXIS2_PLACEMENT_3D('',#68,#69,#70);
#73=CARTESIAN_POINT('',(1.8E1,0.E0,0.E0));
#74=DIRECTION('',(1.E0,0.E0,0.E0));
#75=DIRECTION('',(0.E0,1.E0,0.E0));
#76=AXIS2_PLACEMENT_3D('',#73,#74,#75);
#78=CARTESIAN_POINT('',(1.8E1,0.E0,0.E0));
#79=DIRECTION('',(1.E0,0.E0,0.E0));
#80=DIRECTION('',(0.E0,-1.E0,0.E0));
#81=AXIS2_PLACEMENT_3D('',#78,#79,#80);
#83=CARTESIAN_POINT('',(1.8E1,0.E0,0.E0));
#84=DIRECTION('',(1.E0,0.E0,0.E0));
#85=DIRECTION('',(0.E0,1.E0,0.E0));
#86=AXIS2_PLACEMENT_3D('',#83,#84,#85);
#88=DIRECTION('',(1.E0,0.E0,0.E0));
#89=VECTOR('',#88,2.8E1);
#90=CARTESIAN_POINT('',(1.8E1,-3.75E-1,0.E0));
#91=LINE('',#90,#89);
#92=DIRECTION('',(1.E0,0.E0,0.E0));
#93=VECTOR('',#92,2.8E1);
#94=CARTESIAN_POINT('',(1.8E1,3.75E-1,0.E0));
#95=LINE('',#94,#93);
#96=CARTESIAN_POINT('',(4.6E1,0.E0,0.E0));
#97=DIRECTION('',(1.E0,0.E0,0.E0));
#98=DIRECTION('',(0.E0,-1.E0,0.E0));
#99=AXIS2_PLACEMENT_3D('',#96,#97,#98);
#101=CARTESIAN_POINT('',(4.6E1,0.E0,0.E0));
#102=DIRECTION('',(1.E0,0.E0,0.E0));
#103=DIRECTION('',(0.E0,1.E0,0.E0));
#104=AXIS2_PLACEMENT_3D('',#101,#102,#103);
#106=CARTESIAN_POINT('',(1.766E1,-3.41E0,0.E0));
#107=DIRECTION('',(0.E0,0.E0,-1.E0));
#108=DIRECTION('',(1.E0,0.E0,0.E0));
#109=AXIS2_PLACEMENT_3D('',#106,#107,#108);
#111=CARTESIAN_POINT('',(1.766E1,0.E0,0.E0));
#112=DIRECTION('',(1.E0,0.E0,0.E0));
#113=DIRECTION('',(0.E0,-1.E0,0.E0));
#114=AXIS2_PLACEMENT_3D('',#111,#112,#113);
#116=CARTESIAN_POINT('',(3.4E-1,0.E0,0.E0));
#117=DIRECTION('',(-1.E0,0.E0,0.E0));
#118=DIRECTION('',(0.E0,1.E0,0.E0));
#119=AXIS2_PLACEMENT_3D('',#116,#117,#118);
#121=DIRECTION('',(1.E0,0.E0,4.562865293613E-12));
#122=VECTOR('',#121,1.732E1);
#123=CARTESIAN_POINT('',(3.4E-1,-3.75E0,-6.039385562574E-11));
#124=LINE('',#123,#122);
#125=CARTESIAN_POINT('',(4.6E1,-3.75E-1,0.E0));
#126=CARTESIAN_POINT('',(4.6E1,3.75E-1,0.E0));
#127=VERTEX_POINT('',#125);
#128=VERTEX_POINT('',#126);
#129=CARTESIAN_POINT('',(1.8E1,-3.75E-1,0.E0));
#130=CARTESIAN_POINT('',(1.8E1,3.75E-1,0.E0));
#131=VERTEX_POINT('',#129);
#132=VERTEX_POINT('',#130);
#133=CARTESIAN_POINT('',(-2.8E1,0.E0,3.75E-1));
#134=CARTESIAN_POINT('',(-2.8E1,0.E0,-3.75E-1));
#135=VERTEX_POINT('',#133);
#136=VERTEX_POINT('',#134);
#137=CARTESIAN_POINT('',(0.E0,0.E0,3.75E-1));
#138=CARTESIAN_POINT('',(0.E0,0.E0,-3.75E-1));
#139=VERTEX_POINT('',#137);
#140=VERTEX_POINT('',#138);
#141=CARTESIAN_POINT('',(1.8E1,-3.41E0,0.E0));
#142=CARTESIAN_POINT('',(1.8E1,3.41E0,0.E0));
#143=VERTEX_POINT('',#141);
#144=VERTEX_POINT('',#142);
#145=CARTESIAN_POINT('',(1.766E1,-3.75E0,0.E0));
#146=CARTESIAN_POINT('',(1.766E1,3.75E0,0.E0));
#147=VERTEX_POINT('',#145);
#148=VERTEX_POINT('',#146);
#149=CARTESIAN_POINT('',(0.E0,3.41E0,0.E0));
#150=CARTESIAN_POINT('',(0.E0,-3.41E0,0.E0));
#151=VERTEX_POINT('',#149);
#152=VERTEX_POINT('',#150);
#153=CARTESIAN_POINT('',(3.4E-1,3.75E0,0.E0));
#154=CARTESIAN_POINT('',(3.4E-1,-3.75E0,0.E0));
#155=VERTEX_POINT('',#153);
#156=VERTEX_POINT('',#154);
#157=CARTESIAN_POINT('',(0.E0,0.E0,0.E0));
#158=DIRECTION('',(1.E0,0.E0,0.E0));
#159=DIRECTION('',(0.E0,-1.E0,0.E0));
#160=AXIS2_PLACEMENT_3D('',#157,#158,#159);
#161=PLANE('',#160);
#163=ORIENTED_EDGE('',*,*,#162,.F.);
#165=ORIENTED_EDGE('',*,*,#164,.F.);
#166=EDGE_LOOP('',(#163,#165));
#167=FACE_OUTER_BOUND('',#166,.F.);
#169=ORIENTED_EDGE('',*,*,#168,.T.);
#171=ORIENTED_EDGE('',*,*,#170,.T.);
#172=EDGE_LOOP('',(#169,#171));
#173=FACE_BOUND('',#172,.F.);
#174=ADVANCED_FACE('',(#167,#173),#161,.F.);
#175=CARTESIAN_POINT('',(0.E0,0.E0,0.E0));
#176=DIRECTION('',(-1.E0,0.E0,0.E0));
#177=DIRECTION('',(0.E0,0.E0,1.E0));
#178=AXIS2_PLACEMENT_3D('',#175,#176,#177);
#179=CYLINDRICAL_SURFACE('',#178,3.75E-1);
#180=ORIENTED_EDGE('',*,*,#168,.F.);
#182=ORIENTED_EDGE('',*,*,#181,.T.);
#184=ORIENTED_EDGE('',*,*,#183,.T.);
#186=ORIENTED_EDGE('',*,*,#185,.F.);
#187=EDGE_LOOP('',(#180,#182,#184,#186));
#188=FACE_OUTER_BOUND('',#187,.F.);
#189=ADVANCED_FACE('',(#188),#179,.T.);
#190=CARTESIAN_POINT('',(0.E0,0.E0,0.E0));
#191=DIRECTION('',(-1.E0,0.E0,0.E0));
#192=DIRECTION('',(0.E0,0.E0,1.E0));
#193=AXIS2_PLACEMENT_3D('',#190,#191,#192);
#194=CYLINDRICAL_SURFACE('',#193,3.75E-1);
#195=ORIENTED_EDGE('',*,*,#170,.F.);
#196=ORIENTED_EDGE('',*,*,#185,.T.);
#198=ORIENTED_EDGE('',*,*,#197,.T.);
#199=ORIENTED_EDGE('',*,*,#181,.F.);
#200=EDGE_LOOP('',(#195,#196,#198,#199));
#201=FACE_OUTER_BOUND('',#200,.F.);
#202=ADVANCED_FACE('',(#201),#194,.T.);
#203=CARTESIAN_POINT('',(-2.8E1,0.E0,0.E0));
#204=DIRECTION('',(-1.E0,0.E0,0.E0));
#205=DIRECTION('',(0.E0,0.E0,1.E0));
#206=AXIS2_PLACEMENT_3D('',#203,#204,#205);
#207=PLANE('',#206);
#208=ORIENTED_EDGE('',*,*,#183,.F.);
#209=ORIENTED_EDGE('',*,*,#197,.F.);
#210=EDGE_LOOP('',(#208,#209));
#211=FACE_OUTER_BOUND('',#210,.F.);
#212=ADVANCED_FACE('',(#211),#207,.T.);
#213=CARTESIAN_POINT('',(3.4E-1,0.E0,0.E0));
#214=DIRECTION('',(1.E0,0.E0,0.E0));
#215=DIRECTION('',(0.E0,9.998354170044E-1,1.814218574796E-2));
#216=AXIS2_PLACEMENT_3D('',#213,#214,#215);
#217=TOROIDAL_SURFACE('',#216,3.41E0,3.4E-1);
#218=ORIENTED_EDGE('',*,*,#162,.T.);
#220=ORIENTED_EDGE('',*,*,#219,.T.);
#222=ORIENTED_EDGE('',*,*,#221,.F.);
#224=ORIENTED_EDGE('',*,*,#223,.F.);
#225=EDGE_LOOP('',(#218,#220,#222,#224));
#226=FACE_OUTER_BOUND('',#225,.F.);
#227=ADVANCED_FACE('',(#226),#217,.T.);
#228=CARTESIAN_POINT('',(3.4E-1,0.E0,0.E0));
#229=DIRECTION('',(1.E0,0.E0,0.E0));
#230=DIRECTION('',(0.E0,-9.998354170044E-1,-1.814218574796E-2));
#231=AXIS2_PLACEMENT_3D('',#228,#229,#230);
#232=TOROIDAL_SURFACE('',#231,3.41E0,3.4E-1);
#233=ORIENTED_EDGE('',*,*,#164,.T.);
#234=ORIENTED_EDGE('',*,*,#223,.T.);
#236=ORIENTED_EDGE('',*,*,#235,.F.);
#237=ORIENTED_EDGE('',*,*,#219,.F.);
#238=EDGE_LOOP('',(#233,#234,#236,#237));
#239=FACE_OUTER_BOUND('',#238,.F.);
#240=ADVANCED_FACE('',(#239),#232,.T.);
#241=CARTESIAN_POINT('',(0.E0,0.E0,0.E0));
#242=DIRECTION('',(1.E0,0.E0,0.E0));
#243=DIRECTION('',(0.E0,-1.E0,0.E0));
#244=AXIS2_PLACEMENT_3D('',#241,#242,#243);
#245=CYLINDRICAL_SURFACE('',#244,3.75E0);
#247=ORIENTED_EDGE('',*,*,#246,.T.);
#249=ORIENTED_EDGE('',*,*,#248,.F.);
#250=ORIENTED_EDGE('',*,*,#235,.T.);
#252=ORIENTED_EDGE('',*,*,#251,.T.);
#253=EDGE_LOOP('',(#247,#249,#250,#252));
#254=FACE_OUTER_BOUND('',#253,.F.);
#255=ADVANCED_FACE('',(#254),#245,.T.);
#256=CARTESIAN_POINT('',(1.766E1,0.E0,0.E0));
#257=DIRECTION('',(1.E0,0.E0,0.E0));
#258=DIRECTION('',(0.E0,9.999184405152E-1,-1.277154327499E-2));
#259=AXIS2_PLACEMENT_3D('',#256,#257,#258);
#260=TOROIDAL_SURFACE('',#259,3.41E0,3.4E-1);
#262=ORIENTED_EDGE('',*,*,#261,.T.);
#264=ORIENTED_EDGE('',*,*,#263,.T.);
#265=ORIENTED_EDGE('',*,*,#246,.F.);
#267=ORIENTED_EDGE('',*,*,#266,.F.);
#268=EDGE_LOOP('',(#262,#264,#265,#267));
#269=FACE_OUTER_BOUND('',#268,.F.);
#270=ADVANCED_FACE('',(#269),#260,.T.);
#271=CARTESIAN_POINT('',(1.8E1,0.E0,0.E0));
#272=DIRECTION('',(1.E0,0.E0,0.E0));
#273=DIRECTION('',(0.E0,-1.E0,0.E0));
#274=AXIS2_PLACEMENT_3D('',#271,#272,#273);
#275=PLANE('',#274);
#277=ORIENTED_EDGE('',*,*,#276,.F.);
#278=ORIENTED_EDGE('',*,*,#261,.F.);
#279=EDGE_LOOP('',(#277,#278));
#280=FACE_OUTER_BOUND('',#279,.F.);
#282=ORIENTED_EDGE('',*,*,#281,.T.);
#284=ORIENTED_EDGE('',*,*,#283,.T.);
#285=EDGE_LOOP('',(#282,#284));
#286=FACE_BOUND('',#285,.F.);
#287=ADVANCED_FACE('',(#280,#286),#275,.T.);
#288=CARTESIAN_POINT('',(1.8E1,0.E0,0.E0));
#289=DIRECTION('',(1.E0,0.E0,0.E0));
#290=DIRECTION('',(0.E0,-1.E0,0.E0));
#291=AXIS2_PLACEMENT_3D('',#288,#289,#290);
#292=CYLINDRICAL_SURFACE('',#291,3.75E-1);
#293=ORIENTED_EDGE('',*,*,#281,.F.);
#295=ORIENTED_EDGE('',*,*,#294,.T.);
#297=ORIENTED_EDGE('',*,*,#296,.T.);
#299=ORIENTED_EDGE('',*,*,#298,.F.);
#300=EDGE_LOOP('',(#293,#295,#297,#299));
#301=FACE_OUTER_BOUND('',#300,.F.);
#302=ADVANCED_FACE('',(#301),#292,.T.);
#303=CARTESIAN_POINT('',(1.8E1,0.E0,0.E0));
#304=DIRECTION('',(1.E0,0.E0,0.E0));
#305=DIRECTION('',(0.E0,-1.E0,0.E0));
#306=AXIS2_PLACEMENT_3D('',#303,#304,#305);
#307=CYLINDRICAL_SURFACE('',#306,3.75E-1);
#308=ORIENTED_EDGE('',*,*,#283,.F.);
#309=ORIENTED_EDGE('',*,*,#298,.T.);
#311=ORIENTED_EDGE('',*,*,#310,.T.);
#312=ORIENTED_EDGE('',*,*,#294,.F.);
#313=EDGE_LOOP('',(#308,#309,#311,#312));
#314=FACE_OUTER_BOUND('',#313,.F.);
#315=ADVANCED_FACE('',(#314),#307,.T.);
#316=CARTESIAN_POINT('',(4.6E1,0.E0,0.E0));
#317=DIRECTION('',(1.E0,0.E0,0.E0));
#318=DIRECTION('',(0.E0,-1.E0,0.E0));
#319=AXIS2_PLACEMENT_3D('',#316,#317,#318);
#320=PLANE('',#319);
#321=ORIENTED_EDGE('',*,*,#296,.F.);
#322=ORIENTED_EDGE('',*,*,#310,.F.);
#323=EDGE_LOOP('',(#321,#322));
#324=FACE_OUTER_BOUND('',#323,.F.);
#325=ADVANCED_FACE('',(#324),#320,.T.);
#326=CARTESIAN_POINT('',(1.766E1,0.E0,0.E0));
#327=DIRECTION('',(1.E0,0.E0,0.E0));
#328=DIRECTION('',(0.E0,-9.999184405152E-1,1.277154327499E-2));
#329=AXIS2_PLACEMENT_3D('',#326,#327,#328);
#330=TOROIDAL_SURFACE('',#329,3.41E0,3.4E-1);
#331=ORIENTED_EDGE('',*,*,#276,.T.);
#332=ORIENTED_EDGE('',*,*,#266,.T.);
#334=ORIENTED_EDGE('',*,*,#333,.F.);
#335=ORIENTED_EDGE('',*,*,#263,.F.);
#336=EDGE_LOOP('',(#331,#332,#334,#335));
#337=FACE_OUTER_BOUND('',#336,.F.);
#338=ADVANCED_FACE('',(#337),#330,.T.);
#339=CARTESIAN_POINT('',(0.E0,0.E0,0.E0));
#340=DIRECTION('',(1.E0,0.E0,0.E0));
#341=DIRECTION('',(0.E0,-1.E0,0.E0));
#342=AXIS2_PLACEMENT_3D('',#339,#340,#341);
#343=CYLINDRICAL_SURFACE('',#342,3.75E0);
#344=ORIENTED_EDGE('',*,*,#333,.T.);
#345=ORIENTED_EDGE('',*,*,#251,.F.);
#346=ORIENTED_EDGE('',*,*,#221,.T.);
#347=ORIENTED_EDGE('',*,*,#248,.T.);
#348=EDGE_LOOP('',(#344,#345,#346,#347));
#349=FACE_OUTER_BOUND('',#348,.F.);
#350=ADVANCED_FACE('',(#349),#343,.T.);
#351=CLOSED_SHELL('',(#174,#189,#202,#212,#227,#240,#255,#270,#287,#302,#315,
#325,#338,#350));
#352=MANIFOLD_SOLID_BREP('',#351);
#354=DIMENSIONAL_EXPONENTS(0.E0,0.E0,0.E0,0.E0,0.E0,0.E0,0.E0);
#356=PLANE_ANGLE_MEASURE_WITH_UNIT(PLANE_ANGLE_MEASURE(1.745329251994E-2),#355);
#357=(CONVERSION_BASED_UNIT('DEGREE',#356)NAMED_UNIT(*)PLANE_ANGLE_UNIT());
#359=UNCERTAINTY_MEASURE_WITH_UNIT(LENGTH_MEASURE(3.114730592470E-3),#353,
'closure',
'Maximum model space distance between geometric entities at asserted connectivities');
#360=(GEOMETRIC_REPRESENTATION_CONTEXT(3)GLOBAL_UNCERTAINTY_ASSIGNED_CONTEXT((
#359))GLOBAL_UNIT_ASSIGNED_CONTEXT((#353,#357,#358))REPRESENTATION_CONTEXT
('ID1','3'));
#362=APPLICATION_CONTEXT(
'CONFIGURATION CONTROLLED 3D DESIGNS OF MECHANICAL PARTS AND ASSEMBLIES');
#363=APPLICATION_PROTOCOL_DEFINITION('international standard',
'config_control_design',1994,#362);
#364=DESIGN_CONTEXT('',#362,'design');
#365=MECHANICAL_CONTEXT('',#362,'mechanical');
#366=PRODUCT('FW50A','FW50A','NOT SPECIFIED',(#365));
#367=PRODUCT_DEFINITION_FORMATION_WITH_SPECIFIED_SOURCE('2','LAST_VERSION',#366,
.MADE.);
#371=PRODUCT_CATEGORY('part','');
#372=PRODUCT_RELATED_PRODUCT_CATEGORY('detail','',(#366));
#373=PRODUCT_CATEGORY_RELATIONSHIP('','',#371,#372);
#374=SECURITY_CLASSIFICATION_LEVEL('unclassified');
#375=SECURITY_CLASSIFICATION('','',#374);
#376=CC_DESIGN_SECURITY_CLASSIFICATION(#375,(#367));
#377=APPROVAL_STATUS('approved');
#378=APPROVAL(#377,'');
#379=CC_DESIGN_APPROVAL(#378,(#375,#367,#368));
#380=CALENDAR_DATE(112,19,12);
#381=COORDINATED_UNIVERSAL_TIME_OFFSET(8,0,.BEHIND.);
#382=LOCAL_TIME(8,27,3.2E1,#381);
#383=DATE_AND_TIME(#380,#382);
#384=APPROVAL_DATE_TIME(#383,#378);
#385=DATE_TIME_ROLE('creation_date');
#386=CC_DESIGN_DATE_AND_TIME_ASSIGNMENT(#383,#385,(#368));
#387=DATE_TIME_ROLE('classification_date');
#388=CC_DESIGN_DATE_AND_TIME_ASSIGNMENT(#383,#387,(#375));
#389=PERSON('UNSPECIFIED','UNSPECIFIED',$,$,$,$);
#390=ORGANIZATION('UNSPECIFIED','UNSPECIFIED','UNSPECIFIED');
#391=PERSON_AND_ORGANIZATION(#389,#390);
#392=APPROVAL_ROLE('approver');
#393=APPROVAL_PERSON_ORGANIZATION(#391,#378,#392);
#394=PERSON_AND_ORGANIZATION_ROLE('creator');
#395=CC_DESIGN_PERSON_AND_ORGANIZATION_ASSIGNMENT(#391,#394,(#367,#368));
#396=PERSON_AND_ORGANIZATION_ROLE('design_supplier');
#397=CC_DESIGN_PERSON_AND_ORGANIZATION_ASSIGNMENT(#391,#396,(#367));
#398=PERSON_AND_ORGANIZATION_ROLE('classification_officer');
#399=CC_DESIGN_PERSON_AND_ORGANIZATION_ASSIGNMENT(#391,#398,(#375));
#400=PERSON_AND_ORGANIZATION_ROLE('design_owner');
#401=CC_DESIGN_PERSON_AND_ORGANIZATION_ASSIGNMENT(#391,#400,(#366));
#5=CIRCLE('',#4,3.75E-1);
#10=CIRCLE('',#9,3.75E-1);
#15=CIRCLE('',#14,3.41E0);
#20=CIRCLE('',#19,3.41E0);
#33=CIRCLE('',#32,3.75E-1);
#38=CIRCLE('',#37,3.75E-1);
#43=CIRCLE('',#42,3.4E-1);
#48=CIRCLE('',#47,3.4E-1);
#53=CIRCLE('',#52,3.75E0);
#58=CIRCLE('',#57,3.75E0);
#67=CIRCLE('',#66,3.4E-1);
#72=CIRCLE('',#71,3.75E-1);
#77=CIRCLE('',#76,3.75E-1);
#82=CIRCLE('',#81,3.41E0);
#87=CIRCLE('',#86,3.41E0);
#100=CIRCLE('',#99,3.75E-1);
#105=CIRCLE('',#104,3.75E-1);
#110=CIRCLE('',#109,3.4E-1);
#115=CIRCLE('',#114,3.75E0);
#120=CIRCLE('',#119,3.75E0);
#162=EDGE_CURVE('',#151,#152,#15,.T.);
#164=EDGE_CURVE('',#152,#151,#20,.T.);
#168=EDGE_CURVE('',#139,#140,#5,.T.);
#170=EDGE_CURVE('',#140,#139,#10,.T.);
#181=EDGE_CURVE('',#139,#135,#24,.T.);
#183=EDGE_CURVE('',#135,#136,#33,.T.);
#185=EDGE_CURVE('',#140,#136,#28,.T.);
#197=EDGE_CURVE('',#136,#135,#38,.T.);
#219=EDGE_CURVE('',#152,#156,#48,.T.);
#221=EDGE_CURVE('',#155,#156,#120,.T.);
#223=EDGE_CURVE('',#151,#155,#43,.T.);
#235=EDGE_CURVE('',#156,#155,#58,.T.);
#246=EDGE_CURVE('',#148,#147,#53,.T.);
#248=EDGE_CURVE('',#156,#147,#124,.T.);
#251=EDGE_CURVE('',#155,#148,#62,.T.);
#261=EDGE_CURVE('',#144,#143,#87,.T.);
#263=EDGE_CURVE('',#143,#147,#110,.T.);
#266=EDGE_CURVE('',#144,#148,#67,.T.);
#276=EDGE_CURVE('',#143,#144,#82,.T.);
#281=EDGE_CURVE('',#131,#132,#72,.T.);
#283=EDGE_CURVE('',#132,#131,#77,.T.);
#294=EDGE_CURVE('',#131,#127,#91,.T.);
#296=EDGE_CURVE('',#127,#128,#100,.T.);
#298=EDGE_CURVE('',#132,#128,#95,.T.);
#310=EDGE_CURVE('',#128,#127,#105,.T.);
#333=EDGE_CURVE('',#147,#148,#115,.T.);
#353=(LENGTH_UNIT()NAMED_UNIT(*)SI_UNIT(.MILLI.,.METRE.));
#355=(NAMED_UNIT(*)PLANE_ANGLE_UNIT()SI_UNIT($,.RADIAN.));
#358=(NAMED_UNIT(*)SI_UNIT($,.STERADIAN.)SOLID_ANGLE_UNIT());
#361=ADVANCED_BREP_SHAPE_REPRESENTATION('',(#352),#360);
#368=PRODUCT_DEFINITION('design','',#367,#364);
#369=PRODUCT_DEFINITION_SHAPE('','SHAPE FOR FW50A.',#368);
#370=SHAPE_DEFINITION_REPRESENTATION(#369,#361);
ENDSEC;
END-ISO-10303-21;
