ISO-10303-21;
HEADER;
/* Generated by software containing ST-Developer
 * from STEP Tools, Inc. (www.steptools.com) 
 */
/* OPTION: using custom schema-name function */

FILE_DESCRIPTION(
/* description */ (''),
/* implementation_level */ '2;1');

FILE_NAME(
/* name */ '55-16D5-B.stp',
/* time_stamp */ '2020-09-20T17:42:12+08:00',
/* author */ (''),
/* organization */ (''),
/* preprocessor_version */ 'ST-DEVELOPER v16',
/* originating_system */ 'SIEMENS PLM Software NX 10.0',
/* authorisation */ '');

FILE_SCHEMA (('AP203_CONFIGURATION_CONTROLLED_3D_DESIGN_OF_MECHANICAL_PARTS_AND_ASSEMBLIES_MIM_LF { 1 0 10303 403 2 1 2}'));
ENDSEC;

DATA;
#10=PROPERTY_DEFINITION_REPRESENTATION(#14,#12);
#11=PROPERTY_DEFINITION_REPRESENTATION(#15,#13);
#12=REPRESENTATION('',(#16),#313);
#13=REPRESENTATION('',(#17),#313);
#14=PROPERTY_DEFINITION('pmi validation property','',#89);
#15=PROPERTY_DEFINITION('pmi validation property','',#89);
#16=VALUE_REPRESENTATION_ITEM('number of annotations',COUNT_MEASURE(0.));
#17=VALUE_REPRESENTATION_ITEM('number of views',COUNT_MEASURE(0.));
#18=SHAPE_REPRESENTATION_RELATIONSHIP('None',
'relationship between wusc5F44B848yato-None and wusc5F44B848yato-None',
#100,#19);
#19=ADVANCED_BREP_SHAPE_REPRESENTATION('wusc5F44B848yato-None',(#101),#313);
#20=CC_DESIGN_APPROVAL(#32,(#90));
#21=CC_DESIGN_APPROVAL(#33,(#92));
#22=CC_DESIGN_APPROVAL(#34,(#39));
#23=APPROVAL_PERSON_ORGANIZATION(#77,#32,#26);
#24=APPROVAL_PERSON_ORGANIZATION(#78,#33,#27);
#25=APPROVAL_PERSON_ORGANIZATION(#79,#34,#28);
#26=APPROVAL_ROLE('approver');
#27=APPROVAL_ROLE('approver');
#28=APPROVAL_ROLE('approver');
#29=APPROVAL_DATE_TIME(#47,#32);
#30=APPROVAL_DATE_TIME(#48,#33);
#31=APPROVAL_DATE_TIME(#49,#34);
#32=APPROVAL(#35,' ');
#33=APPROVAL(#36,' ');
#34=APPROVAL(#37,' ');
#35=APPROVAL_STATUS('not_yet_approved');
#36=APPROVAL_STATUS('not_yet_approved');
#37=APPROVAL_STATUS('not_yet_approved');
#38=CC_DESIGN_SECURITY_CLASSIFICATION(#39,(#92));
#39=SECURITY_CLASSIFICATION(' ',' ',#40);
#40=SECURITY_CLASSIFICATION_LEVEL('confidential');
#41=CC_DESIGN_DATE_AND_TIME_ASSIGNMENT(#45,#43,(#90));
#42=CC_DESIGN_DATE_AND_TIME_ASSIGNMENT(#46,#44,(#39));
#43=DATE_TIME_ROLE('creation_date');
#44=DATE_TIME_ROLE('classification_date');
#45=DATE_AND_TIME(#60,#50);
#46=DATE_AND_TIME(#61,#51);
#47=DATE_AND_TIME(#62,#52);
#48=DATE_AND_TIME(#63,#53);
#49=DATE_AND_TIME(#64,#54);
#50=LOCAL_TIME(0,0,0.,#55);
#51=LOCAL_TIME(0,0,0.,#56);
#52=LOCAL_TIME(0,0,0.,#57);
#53=LOCAL_TIME(0,0,0.,#58);
#54=LOCAL_TIME(0,0,0.,#59);
#55=COORDINATED_UNIVERSAL_TIME_OFFSET(0,0,.BEHIND.);
#56=COORDINATED_UNIVERSAL_TIME_OFFSET(0,0,.BEHIND.);
#57=COORDINATED_UNIVERSAL_TIME_OFFSET(0,0,.BEHIND.);
#58=COORDINATED_UNIVERSAL_TIME_OFFSET(0,0,.BEHIND.);
#59=COORDINATED_UNIVERSAL_TIME_OFFSET(0,0,.BEHIND.);
#60=CALENDAR_DATE(0,1,1);
#61=CALENDAR_DATE(0,1,1);
#62=CALENDAR_DATE(0,1,1);
#63=CALENDAR_DATE(0,1,1);
#64=CALENDAR_DATE(0,1,1);
#65=CC_DESIGN_PERSON_AND_ORGANIZATION_ASSIGNMENT(#73,#69,(#90,#92));
#66=CC_DESIGN_PERSON_AND_ORGANIZATION_ASSIGNMENT(#74,#70,(#94));
#67=CC_DESIGN_PERSON_AND_ORGANIZATION_ASSIGNMENT(#75,#71,(#92));
#68=CC_DESIGN_PERSON_AND_ORGANIZATION_ASSIGNMENT(#76,#72,(#39));
#69=PERSON_AND_ORGANIZATION_ROLE('creator');
#70=PERSON_AND_ORGANIZATION_ROLE('design_owner');
#71=PERSON_AND_ORGANIZATION_ROLE('design_supplier');
#72=PERSON_AND_ORGANIZATION_ROLE('classification_officer');
#73=PERSON_AND_ORGANIZATION(#87,#80);
#74=PERSON_AND_ORGANIZATION(#87,#81);
#75=PERSON_AND_ORGANIZATION(#87,#82);
#76=PERSON_AND_ORGANIZATION(#87,#83);
#77=PERSON_AND_ORGANIZATION(#87,#84);
#78=PERSON_AND_ORGANIZATION(#87,#85);
#79=PERSON_AND_ORGANIZATION(#87,#86);
#80=ORGANIZATION(' ',' ',' ');
#81=ORGANIZATION(' ',' ',' ');
#82=ORGANIZATION(' ',' ',' ');
#83=ORGANIZATION(' ',' ',' ');
#84=ORGANIZATION(' ',' ',' ');
#85=ORGANIZATION(' ',' ',' ');
#86=ORGANIZATION(' ',' ',' ');
#87=PERSON(' ',' ',' ',(' '),$,$);
#88=SHAPE_DEFINITION_REPRESENTATION(#89,#100);
#89=PRODUCT_DEFINITION_SHAPE('','',#90);
#90=PRODUCT_DEFINITION(' ','',#92,#91);
#91=DESIGN_CONTEXT('',#99,'design');
#92=PRODUCT_DEFINITION_FORMATION_WITH_SPECIFIED_SOURCE(' ',' ',#94,
 .NOT_KNOWN.);
#93=PRODUCT_RELATED_PRODUCT_CATEGORY('detail','',(#94));
#94=PRODUCT('wusc5F44B848yato','wusc5F44B848yato',' ',(#97));
#95=PRODUCT_CATEGORY('part',' ');
#96=PRODUCT_CATEGORY(' ','');
#97=MECHANICAL_CONTEXT(' ',#99,'mechanical');
#98=APPLICATION_PROTOCOL_DEFINITION('international standard',
'config_control_design',2010,#99);
#99=APPLICATION_CONTEXT(
'configuration controlled 3D designs of mechanical parts and assemblie
s');
#100=SHAPE_REPRESENTATION('wusc5F44B848yato-None',(#215),#313);
#101=MANIFOLD_SOLID_BREP('',#102);
#102=CLOSED_SHELL('',(#113,#114,#115,#116,#117,#118,#119,#120,#121,#122,
#123));
#103=FACE_OUTER_BOUND('',#155,.T.);
#104=FACE_OUTER_BOUND('',#164,.T.);
#105=CONICAL_SURFACE('',#225,4.5,55.);
#106=CONICAL_SURFACE('',#234,4.5,55.);
#107=PLANE('',#223);
#108=PLANE('',#226);
#109=PLANE('',#227);
#110=PLANE('',#232);
#111=PLANE('',#235);
#112=PLANE('',#236);
#113=ADVANCED_FACE('',(#127,#128),#124,.T.);
#114=ADVANCED_FACE('',(#129,#130),#125,.T.);
#115=ADVANCED_FACE('',(#131,#132),#107,.F.);
#116=ADVANCED_FACE('',(#133,#134),#105,.F.);
#117=ADVANCED_FACE('',(#135,#136),#108,.F.);
#118=ADVANCED_FACE('',(#103),#109,.T.);
#119=ADVANCED_FACE('',(#137,#138),#126,.T.);
#120=ADVANCED_FACE('',(#139,#140),#110,.F.);
#121=ADVANCED_FACE('',(#141,#142),#106,.F.);
#122=ADVANCED_FACE('',(#143,#144),#111,.F.);
#123=ADVANCED_FACE('',(#104),#112,.T.);
#124=CYLINDRICAL_SURFACE('',#218,7.73);
#125=CYLINDRICAL_SURFACE('',#221,7.75);
#126=CYLINDRICAL_SURFACE('',#230,7.75);
#127=FACE_BOUND('',#145,.T.);
#128=FACE_BOUND('',#146,.T.);
#129=FACE_BOUND('',#147,.T.);
#130=FACE_BOUND('',#148,.T.);
#131=FACE_BOUND('',#149,.T.);
#132=FACE_BOUND('',#150,.T.);
#133=FACE_BOUND('',#151,.T.);
#134=FACE_BOUND('',#152,.T.);
#135=FACE_BOUND('',#153,.T.);
#136=FACE_BOUND('',#154,.T.);
#137=FACE_BOUND('',#156,.T.);
#138=FACE_BOUND('',#157,.T.);
#139=FACE_BOUND('',#158,.T.);
#140=FACE_BOUND('',#159,.T.);
#141=FACE_BOUND('',#160,.T.);
#142=FACE_BOUND('',#161,.T.);
#143=FACE_BOUND('',#162,.T.);
#144=FACE_BOUND('',#163,.T.);
#145=EDGE_LOOP('',(#165));
#146=EDGE_LOOP('',(#166));
#147=EDGE_LOOP('',(#167));
#148=EDGE_LOOP('',(#168));
#149=EDGE_LOOP('',(#169));
#150=EDGE_LOOP('',(#170));
#151=EDGE_LOOP('',(#171));
#152=EDGE_LOOP('',(#172));
#153=EDGE_LOOP('',(#173));
#154=EDGE_LOOP('',(#174));
#155=EDGE_LOOP('',(#175));
#156=EDGE_LOOP('',(#176));
#157=EDGE_LOOP('',(#177));
#158=EDGE_LOOP('',(#178));
#159=EDGE_LOOP('',(#179));
#160=EDGE_LOOP('',(#180));
#161=EDGE_LOOP('',(#181));
#162=EDGE_LOOP('',(#182));
#163=EDGE_LOOP('',(#183));
#164=EDGE_LOOP('',(#184));
#165=ORIENTED_EDGE('',*,*,#195,.F.);
#166=ORIENTED_EDGE('',*,*,#196,.F.);
#167=ORIENTED_EDGE('',*,*,#197,.F.);
#168=ORIENTED_EDGE('',*,*,#198,.T.);
#169=ORIENTED_EDGE('',*,*,#199,.F.);
#170=ORIENTED_EDGE('',*,*,#198,.F.);
#171=ORIENTED_EDGE('',*,*,#200,.T.);
#172=ORIENTED_EDGE('',*,*,#199,.T.);
#173=ORIENTED_EDGE('',*,*,#195,.T.);
#174=ORIENTED_EDGE('',*,*,#197,.T.);
#175=ORIENTED_EDGE('',*,*,#200,.F.);
#176=ORIENTED_EDGE('',*,*,#201,.F.);
#177=ORIENTED_EDGE('',*,*,#202,.T.);
#178=ORIENTED_EDGE('',*,*,#203,.F.);
#179=ORIENTED_EDGE('',*,*,#202,.F.);
#180=ORIENTED_EDGE('',*,*,#204,.T.);
#181=ORIENTED_EDGE('',*,*,#203,.T.);
#182=ORIENTED_EDGE('',*,*,#196,.T.);
#183=ORIENTED_EDGE('',*,*,#201,.T.);
#184=ORIENTED_EDGE('',*,*,#204,.F.);
#185=VERTEX_POINT('',#283);
#186=VERTEX_POINT('',#285);
#187=VERTEX_POINT('',#288);
#188=VERTEX_POINT('',#290);
#189=VERTEX_POINT('',#293);
#190=VERTEX_POINT('',#296);
#191=VERTEX_POINT('',#301);
#192=VERTEX_POINT('',#303);
#193=VERTEX_POINT('',#306);
#194=VERTEX_POINT('',#309);
#195=EDGE_CURVE('',#185,#185,#205,.T.);
#196=EDGE_CURVE('',#186,#186,#206,.T.);
#197=EDGE_CURVE('',#187,#187,#207,.T.);
#198=EDGE_CURVE('',#188,#188,#208,.T.);
#199=EDGE_CURVE('',#189,#189,#209,.T.);
#200=EDGE_CURVE('',#190,#190,#210,.T.);
#201=EDGE_CURVE('',#191,#191,#211,.T.);
#202=EDGE_CURVE('',#192,#192,#212,.T.);
#203=EDGE_CURVE('',#193,#193,#213,.T.);
#204=EDGE_CURVE('',#194,#194,#214,.T.);
#205=CIRCLE('',#216,7.73);
#206=CIRCLE('',#217,7.73);
#207=CIRCLE('',#219,7.75);
#208=CIRCLE('',#220,7.75);
#209=CIRCLE('',#222,5.21407400337106);
#210=CIRCLE('',#224,4.5);
#211=CIRCLE('',#228,7.75);
#212=CIRCLE('',#229,7.75);
#213=CIRCLE('',#231,5.21407400337106);
#214=CIRCLE('',#233,4.5);
#215=AXIS2_PLACEMENT_3D('',#281,#237,#238);
#216=AXIS2_PLACEMENT_3D('',#282,#239,#240);
#217=AXIS2_PLACEMENT_3D('',#284,#241,#242);
#218=AXIS2_PLACEMENT_3D('',#286,#243,#244);
#219=AXIS2_PLACEMENT_3D('',#287,#245,#246);
#220=AXIS2_PLACEMENT_3D('',#289,#247,#248);
#221=AXIS2_PLACEMENT_3D('',#291,#249,#250);
#222=AXIS2_PLACEMENT_3D('',#292,#251,#252);
#223=AXIS2_PLACEMENT_3D('',#294,#253,#254);
#224=AXIS2_PLACEMENT_3D('',#295,#255,#256);
#225=AXIS2_PLACEMENT_3D('',#297,#257,#258);
#226=AXIS2_PLACEMENT_3D('',#298,#259,#260);
#227=AXIS2_PLACEMENT_3D('',#299,#261,#262);
#228=AXIS2_PLACEMENT_3D('',#300,#263,#264);
#229=AXIS2_PLACEMENT_3D('',#302,#265,#266);
#230=AXIS2_PLACEMENT_3D('',#304,#267,#268);
#231=AXIS2_PLACEMENT_3D('',#305,#269,#270);
#232=AXIS2_PLACEMENT_3D('',#307,#271,#272);
#233=AXIS2_PLACEMENT_3D('',#308,#273,#274);
#234=AXIS2_PLACEMENT_3D('',#310,#275,#276);
#235=AXIS2_PLACEMENT_3D('',#311,#277,#278);
#236=AXIS2_PLACEMENT_3D('',#312,#279,#280);
#237=DIRECTION('',(0.,0.,1.));
#238=DIRECTION('',(1.,0.,0.));
#239=DIRECTION('',(0.,0.,-1.));
#240=DIRECTION('',(1.,0.,0.));
#241=DIRECTION('',(0.,0.,1.));
#242=DIRECTION('',(1.,0.,0.));
#243=DIRECTION('',(0.,0.,1.));
#244=DIRECTION('',(-1.,0.,0.));
#245=DIRECTION('',(0.,0.,1.));
#246=DIRECTION('',(1.,0.,0.));
#247=DIRECTION('',(0.,0.,1.));
#248=DIRECTION('',(1.83697019872103E-16,-1.,0.));
#249=DIRECTION('',(0.,0.,1.));
#250=DIRECTION('',(-1.,0.,0.));
#251=DIRECTION('',(0.,0.,-1.));
#252=DIRECTION('',(-1.,0.,0.));
#253=DIRECTION('',(0.,0.,1.));
#254=DIRECTION('',(-1.,0.,0.));
#255=DIRECTION('',(0.,0.,1.));
#256=DIRECTION('',(-1.83697019872103E-16,-1.,0.));
#257=DIRECTION('',(0.,0.,-1.));
#258=DIRECTION('',(-1.83697019872103E-16,-1.,-8.9300271770328E-18));
#259=DIRECTION('',(0.,0.,-1.));
#260=DIRECTION('',(1.,0.,0.));
#261=DIRECTION('',(0.,0.,-1.));
#262=DIRECTION('',(1.,0.,0.));
#263=DIRECTION('',(0.,0.,-1.));
#264=DIRECTION('',(1.,0.,0.));
#265=DIRECTION('',(0.,0.,-1.));
#266=DIRECTION('',(1.83697019872103E-16,-1.,0.));
#267=DIRECTION('',(0.,0.,-1.));
#268=DIRECTION('',(-1.,0.,0.));
#269=DIRECTION('',(0.,0.,1.));
#270=DIRECTION('',(-1.,0.,0.));
#271=DIRECTION('',(0.,0.,-1.));
#272=DIRECTION('',(-1.,0.,0.));
#273=DIRECTION('',(0.,0.,-1.));
#274=DIRECTION('',(-1.83697019872103E-16,-1.,0.));
#275=DIRECTION('',(0.,0.,1.));
#276=DIRECTION('',(-1.83697019872103E-16,-1.,8.9300271770328E-18));
#277=DIRECTION('',(0.,0.,1.));
#278=DIRECTION('',(1.,0.,0.));
#279=DIRECTION('',(0.,0.,1.));
#280=DIRECTION('',(1.,0.,0.));
#281=CARTESIAN_POINT('',(0.,0.,0.));
#282=CARTESIAN_POINT('',(0.,0.,-1.9));
#283=CARTESIAN_POINT('',(7.73,0.,-1.9));
#284=CARTESIAN_POINT('',(0.,0.,1.9));
#285=CARTESIAN_POINT('',(7.73,0.,1.9));
#286=CARTESIAN_POINT('',(0.,0.,-2.4));
#287=CARTESIAN_POINT('',(0.,0.,-1.9));
#288=CARTESIAN_POINT('',(7.75,0.,-1.9));
#289=CARTESIAN_POINT('',(0.,0.,-2.4));
#290=CARTESIAN_POINT('',(1.4236519040088E-15,-7.75,-2.4));
#291=CARTESIAN_POINT('',(0.,0.,-2.4));
#292=CARTESIAN_POINT('',(0.,0.,-2.4));
#293=CARTESIAN_POINT('',(-5.21407400337106,0.,-2.4));
#294=CARTESIAN_POINT('',(0.,0.,-2.4));
#295=CARTESIAN_POINT('',(0.,0.,-1.9));
#296=CARTESIAN_POINT('',(-8.26636589424463E-16,-4.5,-1.9));
#297=CARTESIAN_POINT('',(0.,0.,-1.9));
#298=CARTESIAN_POINT('',(0.,0.,-1.9));
#299=CARTESIAN_POINT('',(0.,0.,-1.9));
#300=CARTESIAN_POINT('',(0.,0.,1.9));
#301=CARTESIAN_POINT('',(7.75,0.,1.9));
#302=CARTESIAN_POINT('',(0.,0.,2.4));
#303=CARTESIAN_POINT('',(1.4236519040088E-15,-7.75,2.4));
#304=CARTESIAN_POINT('',(0.,0.,2.4));
#305=CARTESIAN_POINT('',(0.,0.,2.4));
#306=CARTESIAN_POINT('',(-5.21407400337106,0.,2.4));
#307=CARTESIAN_POINT('',(0.,0.,2.4));
#308=CARTESIAN_POINT('',(0.,0.,1.9));
#309=CARTESIAN_POINT('',(-8.26636589424463E-16,-4.5,1.9));
#310=CARTESIAN_POINT('',(0.,0.,1.9));
#311=CARTESIAN_POINT('',(0.,0.,1.9));
#312=CARTESIAN_POINT('',(0.,0.,1.9));
#313=(
GEOMETRIC_REPRESENTATION_CONTEXT(3)
GLOBAL_UNCERTAINTY_ASSIGNED_CONTEXT((#314))
GLOBAL_UNIT_ASSIGNED_CONTEXT((#320,#316,#315))
REPRESENTATION_CONTEXT('55-16D5-B','TOP_LEVEL_ASSEMBLY_PART')
);
#314=UNCERTAINTY_MEASURE_WITH_UNIT(LENGTH_MEASURE(2.E-5),#320,
'DISTANCE_ACCURACY_VALUE','Maximum Tolerance applied to model');
#315=(
NAMED_UNIT(*)
SI_UNIT($,.STERADIAN.)
SOLID_ANGLE_UNIT()
);
#316=(
CONVERSION_BASED_UNIT('DEGREE',#318)
NAMED_UNIT(#317)
PLANE_ANGLE_UNIT()
);
#317=DIMENSIONAL_EXPONENTS(0.,0.,0.,0.,0.,0.,0.);
#318=PLANE_ANGLE_MEASURE_WITH_UNIT(PLANE_ANGLE_MEASURE(0.0174532925),#319);
#319=(
NAMED_UNIT(*)
PLANE_ANGLE_UNIT()
SI_UNIT($,.RADIAN.)
);
#320=(
LENGTH_UNIT()
NAMED_UNIT(*)
SI_UNIT(.MILLI.,.METRE.)
);
ENDSEC;
END-ISO-10303-21;
