ISO-10303-21;
HEADER;
FILE_DESCRIPTION((''),'2;1');
FILE_NAME('MF-LR730_20','2012-07-26T',('ryans'),('Bourns, Inc.'),
'PRO/ENGINEER BY PARAMETRIC TECHNOLOGY CORPORATION, 2010100',
'PRO/ENGINEER BY PARAMETRIC TECHNOLOGY CORPORATION, 2010100','');
FILE_SCHEMA(('CONFIG_CONTROL_DESIGN'));
ENDSEC;
DATA;
#1=DIRECTION('',(1.E0,0.E0,0.E0));
#2=VECTOR('',#1,1.75E1);
#3=CARTESIAN_POINT('',(-9.25E0,-2.75E-1,-3.E0));
#4=LINE('',#3,#2);
#5=DIRECTION('',(0.E0,0.E0,-1.E0));
#6=VECTOR('',#5,6.E0);
#7=CARTESIAN_POINT('',(8.25E0,-2.75E-1,3.E0));
#8=LINE('',#7,#6);
#9=DIRECTION('',(1.E0,0.E0,0.E0));
#10=VECTOR('',#9,1.75E1);
#11=CARTESIAN_POINT('',(-9.25E0,-2.75E-1,3.E0));
#12=LINE('',#11,#10);
#13=DIRECTION('',(0.E0,0.E0,1.E0));
#14=VECTOR('',#13,4.1E0);
#15=CARTESIAN_POINT('',(-9.25E0,-2.75E-1,3.E0));
#16=LINE('',#15,#14);
#17=DIRECTION('',(1.E0,0.E0,0.E0));
#18=VECTOR('',#17,1.85E1);
#19=CARTESIAN_POINT('',(-9.25E0,-2.75E-1,7.1E0));
#20=LINE('',#19,#18);
#21=DIRECTION('',(0.E0,0.E0,-1.E0));
#22=VECTOR('',#21,1.42E1);
#23=CARTESIAN_POINT('',(9.25E0,-2.75E-1,7.1E0));
#24=LINE('',#23,#22);
#25=DIRECTION('',(-1.E0,0.E0,0.E0));
#26=VECTOR('',#25,1.85E1);
#27=CARTESIAN_POINT('',(9.25E0,-2.75E-1,-7.1E0));
#28=LINE('',#27,#26);
#29=DIRECTION('',(0.E0,0.E0,1.E0));
#30=VECTOR('',#29,4.1E0);
#31=CARTESIAN_POINT('',(-9.25E0,-2.75E-1,-7.1E0));
#32=LINE('',#31,#30);
#33=DIRECTION('',(-1.E0,0.E0,0.E0));
#34=VECTOR('',#33,4.8E0);
#35=CARTESIAN_POINT('',(-9.25E0,-2.75E-1,-3.E0));
#36=LINE('',#35,#34);
#37=DIRECTION('',(1.E0,0.E0,0.E0));
#38=VECTOR('',#37,2.23E1);
#39=CARTESIAN_POINT('',(-1.405E1,-4.E-1,-3.E0));
#40=LINE('',#39,#38);
#41=DIRECTION('',(0.E0,-1.E0,0.E0));
#42=VECTOR('',#41,1.25E-1);
#43=CARTESIAN_POINT('',(8.25E0,-2.75E-1,-3.E0));
#44=LINE('',#43,#42);
#45=DIRECTION('',(0.E0,0.E0,-1.E0));
#46=VECTOR('',#45,6.E0);
#47=CARTESIAN_POINT('',(-9.25E0,-2.75E-1,3.E0));
#48=LINE('',#47,#46);
#49=DIRECTION('',(0.E0,1.E0,0.E0));
#50=VECTOR('',#49,5.5E-1);
#51=CARTESIAN_POINT('',(-9.25E0,-2.75E-1,-7.1E0));
#52=LINE('',#51,#50);
#53=DIRECTION('',(0.E0,1.E0,0.E0));
#54=VECTOR('',#53,5.5E-1);
#55=CARTESIAN_POINT('',(9.25E0,-2.75E-1,-7.1E0));
#56=LINE('',#55,#54);
#57=DIRECTION('',(0.E0,0.E0,-1.E0));
#58=VECTOR('',#57,6.E0);
#59=CARTESIAN_POINT('',(9.25E0,2.75E-1,3.E0));
#60=LINE('',#59,#58);
#61=DIRECTION('',(0.E0,1.E0,0.E0));
#62=VECTOR('',#61,5.5E-1);
#63=CARTESIAN_POINT('',(9.25E0,-2.75E-1,7.1E0));
#64=LINE('',#63,#62);
#65=DIRECTION('',(1.E0,0.E0,0.E0));
#66=VECTOR('',#65,2.23E1);
#67=CARTESIAN_POINT('',(-8.25E0,4.E-1,3.E0));
#68=LINE('',#67,#66);
#69=DIRECTION('',(-1.E0,0.E0,0.E0));
#70=VECTOR('',#69,4.8E0);
#71=CARTESIAN_POINT('',(1.405E1,2.75E-1,3.E0));
#72=LINE('',#71,#70);
#73=DIRECTION('',(0.E0,1.E0,0.E0));
#74=VECTOR('',#73,1.25E-1);
#75=CARTESIAN_POINT('',(-8.25E0,2.75E-1,3.E0));
#76=LINE('',#75,#74);
#77=DIRECTION('',(0.E0,0.E0,1.E0));
#78=VECTOR('',#77,6.E0);
#79=CARTESIAN_POINT('',(-8.25E0,4.E-1,-3.E0));
#80=LINE('',#79,#78);
#81=DIRECTION('',(0.E0,1.E0,0.E0));
#82=VECTOR('',#81,1.25E-1);
#83=CARTESIAN_POINT('',(-8.25E0,2.75E-1,-3.E0));
#84=LINE('',#83,#82);
#85=DIRECTION('',(0.E0,0.E0,1.E0));
#86=VECTOR('',#85,6.E0);
#87=CARTESIAN_POINT('',(-8.25E0,2.75E-1,-3.E0));
#88=LINE('',#87,#86);
#89=DIRECTION('',(-1.E0,0.E0,0.E0));
#90=VECTOR('',#89,1.75E1);
#91=CARTESIAN_POINT('',(9.25E0,2.75E-1,3.E0));
#92=LINE('',#91,#90);
#93=DIRECTION('',(0.E0,0.E0,-1.E0));
#94=VECTOR('',#93,4.1E0);
#95=CARTESIAN_POINT('',(9.25E0,2.75E-1,7.1E0));
#96=LINE('',#95,#94);
#97=DIRECTION('',(1.E0,0.E0,0.E0));
#98=VECTOR('',#97,1.85E1);
#99=CARTESIAN_POINT('',(-9.25E0,2.75E-1,7.1E0));
#100=LINE('',#99,#98);
#101=DIRECTION('',(0.E0,0.E0,1.E0));
#102=VECTOR('',#101,1.42E1);
#103=CARTESIAN_POINT('',(-9.25E0,2.75E-1,-7.1E0));
#104=LINE('',#103,#102);
#105=DIRECTION('',(-1.E0,0.E0,0.E0));
#106=VECTOR('',#105,1.85E1);
#107=CARTESIAN_POINT('',(9.25E0,2.75E-1,-7.1E0));
#108=LINE('',#107,#106);
#109=DIRECTION('',(0.E0,0.E0,-1.E0));
#110=VECTOR('',#109,4.1E0);
#111=CARTESIAN_POINT('',(9.25E0,2.75E-1,-3.E0));
#112=LINE('',#111,#110);
#113=DIRECTION('',(-1.E0,0.E0,0.E0));
#114=VECTOR('',#113,1.75E1);
#115=CARTESIAN_POINT('',(9.25E0,2.75E-1,-3.E0));
#116=LINE('',#115,#114);
#117=DIRECTION('',(0.E0,1.E0,0.E0));
#118=VECTOR('',#117,5.5E-1);
#119=CARTESIAN_POINT('',(-9.25E0,-2.75E-1,7.1E0));
#120=LINE('',#119,#118);
#121=DIRECTION('',(1.E0,0.E0,0.E0));
#122=VECTOR('',#121,4.8E0);
#123=CARTESIAN_POINT('',(9.25E0,2.75E-1,-3.E0));
#124=LINE('',#123,#122);
#125=DIRECTION('',(0.E0,1.E0,0.E0));
#126=VECTOR('',#125,1.25E-1);
#127=CARTESIAN_POINT('',(1.405E1,2.75E-1,-3.E0));
#128=LINE('',#127,#126);
#129=DIRECTION('',(-1.E0,0.E0,0.E0));
#130=VECTOR('',#129,2.23E1);
#131=CARTESIAN_POINT('',(1.405E1,4.E-1,-3.E0));
#132=LINE('',#131,#130);
#133=DIRECTION('',(0.E0,0.E0,-1.E0));
#134=VECTOR('',#133,6.E0);
#135=CARTESIAN_POINT('',(1.405E1,4.E-1,3.E0));
#136=LINE('',#135,#134);
#137=DIRECTION('',(0.E0,0.E0,1.E0));
#138=VECTOR('',#137,6.E0);
#139=CARTESIAN_POINT('',(1.405E1,2.75E-1,-3.E0));
#140=LINE('',#139,#138);
#141=DIRECTION('',(1.421085471520E-14,1.E0,0.E0));
#142=VECTOR('',#141,1.25E-1);
#143=CARTESIAN_POINT('',(1.405E1,2.75E-1,3.E0));
#144=LINE('',#143,#142);
#145=DIRECTION('',(-1.E0,0.E0,0.E0));
#146=VECTOR('',#145,2.23E1);
#147=CARTESIAN_POINT('',(8.25E0,-4.E-1,3.E0));
#148=LINE('',#147,#146);
#149=DIRECTION('',(0.E0,-1.E0,0.E0));
#150=VECTOR('',#149,1.25E-1);
#151=CARTESIAN_POINT('',(-1.405E1,-2.75E-1,3.E0));
#152=LINE('',#151,#150);
#153=DIRECTION('',(1.E0,0.E0,0.E0));
#154=VECTOR('',#153,4.8E0);
#155=CARTESIAN_POINT('',(-1.405E1,-2.75E-1,3.E0));
#156=LINE('',#155,#154);
#157=DIRECTION('',(0.E0,0.E0,-1.E0));
#158=VECTOR('',#157,6.E0);
#159=CARTESIAN_POINT('',(8.25E0,-4.E-1,3.E0));
#160=LINE('',#159,#158);
#161=DIRECTION('',(0.E0,0.E0,1.E0));
#162=VECTOR('',#161,6.E0);
#163=CARTESIAN_POINT('',(-1.405E1,-2.75E-1,-3.E0));
#164=LINE('',#163,#162);
#165=DIRECTION('',(0.E0,0.E0,-1.E0));
#166=VECTOR('',#165,6.E0);
#167=CARTESIAN_POINT('',(-1.405E1,-4.E-1,3.E0));
#168=LINE('',#167,#166);
#169=DIRECTION('',(0.E0,-1.E0,0.E0));
#170=VECTOR('',#169,1.25E-1);
#171=CARTESIAN_POINT('',(-1.405E1,-2.75E-1,-3.E0));
#172=LINE('',#171,#170);
#173=DIRECTION('',(0.E0,-1.E0,0.E0));
#174=VECTOR('',#173,1.25E-1);
#175=CARTESIAN_POINT('',(8.25E0,-2.75E-1,3.E0));
#176=LINE('',#175,#174);
#177=CARTESIAN_POINT('',(-9.25E0,-2.75E-1,7.1E0));
#178=CARTESIAN_POINT('',(9.25E0,-2.75E-1,7.1E0));
#179=VERTEX_POINT('',#177);
#180=VERTEX_POINT('',#178);
#181=CARTESIAN_POINT('',(9.25E0,-2.75E-1,-7.1E0));
#182=VERTEX_POINT('',#181);
#183=CARTESIAN_POINT('',(-9.25E0,-2.75E-1,-7.1E0));
#184=VERTEX_POINT('',#183);
#185=CARTESIAN_POINT('',(-9.25E0,2.75E-1,-7.1E0));
#186=CARTESIAN_POINT('',(-9.25E0,2.75E-1,7.1E0));
#187=VERTEX_POINT('',#185);
#188=VERTEX_POINT('',#186);
#189=CARTESIAN_POINT('',(9.25E0,2.75E-1,7.1E0));
#190=VERTEX_POINT('',#189);
#191=CARTESIAN_POINT('',(9.25E0,2.75E-1,-7.1E0));
#192=VERTEX_POINT('',#191);
#193=CARTESIAN_POINT('',(-8.25E0,4.E-1,-3.E0));
#194=CARTESIAN_POINT('',(-8.25E0,4.E-1,3.E0));
#195=VERTEX_POINT('',#193);
#196=VERTEX_POINT('',#194);
#197=CARTESIAN_POINT('',(-8.25E0,2.75E-1,-3.E0));
#198=CARTESIAN_POINT('',(-8.25E0,2.75E-1,3.E0));
#199=VERTEX_POINT('',#197);
#200=VERTEX_POINT('',#198);
#201=CARTESIAN_POINT('',(9.25E0,2.75E-1,3.E0));
#202=VERTEX_POINT('',#201);
#203=CARTESIAN_POINT('',(9.25E0,2.75E-1,-3.E0));
#204=VERTEX_POINT('',#203);
#205=CARTESIAN_POINT('',(8.25E0,-4.E-1,3.E0));
#206=CARTESIAN_POINT('',(8.25E0,-4.E-1,-3.E0));
#207=VERTEX_POINT('',#205);
#208=VERTEX_POINT('',#206);
#209=CARTESIAN_POINT('',(-9.25E0,-2.75E-1,-3.E0));
#210=CARTESIAN_POINT('',(8.25E0,-2.75E-1,-3.E0));
#211=VERTEX_POINT('',#209);
#212=VERTEX_POINT('',#210);
#213=CARTESIAN_POINT('',(-9.25E0,-2.75E-1,3.E0));
#214=CARTESIAN_POINT('',(8.25E0,-2.75E-1,3.E0));
#215=VERTEX_POINT('',#213);
#216=VERTEX_POINT('',#214);
#217=CARTESIAN_POINT('',(1.405E1,2.75E-1,3.E0));
#218=CARTESIAN_POINT('',(1.405E1,4.E-1,3.E0));
#219=VERTEX_POINT('',#217);
#220=VERTEX_POINT('',#218);
#221=CARTESIAN_POINT('',(1.405E1,2.75E-1,-3.E0));
#222=CARTESIAN_POINT('',(1.405E1,4.E-1,-3.E0));
#223=VERTEX_POINT('',#221);
#224=VERTEX_POINT('',#222);
#225=CARTESIAN_POINT('',(-1.405E1,-2.75E-1,-3.E0));
#226=CARTESIAN_POINT('',(-1.405E1,-4.E-1,-3.E0));
#227=VERTEX_POINT('',#225);
#228=VERTEX_POINT('',#226);
#229=CARTESIAN_POINT('',(-1.405E1,-2.75E-1,3.E0));
#230=CARTESIAN_POINT('',(-1.405E1,-4.E-1,3.E0));
#231=VERTEX_POINT('',#229);
#232=VERTEX_POINT('',#230);
#233=CARTESIAN_POINT('',(0.E0,-2.75E-1,0.E0));
#234=DIRECTION('',(0.E0,1.E0,0.E0));
#235=DIRECTION('',(1.E0,0.E0,0.E0));
#236=AXIS2_PLACEMENT_3D('',#233,#234,#235);
#237=PLANE('',#236);
#239=ORIENTED_EDGE('',*,*,#238,.T.);
#241=ORIENTED_EDGE('',*,*,#240,.F.);
#243=ORIENTED_EDGE('',*,*,#242,.F.);
#245=ORIENTED_EDGE('',*,*,#244,.T.);
#247=ORIENTED_EDGE('',*,*,#246,.T.);
#249=ORIENTED_EDGE('',*,*,#248,.T.);
#251=ORIENTED_EDGE('',*,*,#250,.T.);
#253=ORIENTED_EDGE('',*,*,#252,.T.);
#254=EDGE_LOOP('',(#239,#241,#243,#245,#247,#249,#251,#253));
#255=FACE_OUTER_BOUND('',#254,.F.);
#257=CARTESIAN_POINT('',(8.25E0,-2.75E-1,-3.E0));
#258=DIRECTION('',(0.E0,0.E0,-1.E0));
#259=DIRECTION('',(-1.E0,0.E0,0.E0));
#260=AXIS2_PLACEMENT_3D('',#257,#258,#259);
#261=PLANE('',#260);
#263=ORIENTED_EDGE('',*,*,#262,.T.);
#265=ORIENTED_EDGE('',*,*,#264,.T.);
#267=ORIENTED_EDGE('',*,*,#266,.T.);
#269=ORIENTED_EDGE('',*,*,#268,.F.);
#270=ORIENTED_EDGE('',*,*,#238,.F.);
#271=EDGE_LOOP('',(#263,#265,#267,#269,#270));
#272=FACE_OUTER_BOUND('',#271,.F.);
#274=CARTESIAN_POINT('',(0.E0,-2.75E-1,0.E0));
#275=DIRECTION('',(0.E0,1.E0,0.E0));
#276=DIRECTION('',(1.E0,0.E0,0.E0));
#277=AXIS2_PLACEMENT_3D('',#274,#275,#276);
#278=PLANE('',#277);
#280=ORIENTED_EDGE('',*,*,#279,.F.);
#282=ORIENTED_EDGE('',*,*,#281,.F.);
#284=ORIENTED_EDGE('',*,*,#283,.F.);
#285=ORIENTED_EDGE('',*,*,#262,.F.);
#286=EDGE_LOOP('',(#280,#282,#284,#285));
#287=FACE_OUTER_BOUND('',#286,.F.);
#289=CARTESIAN_POINT('',(-9.25E0,-2.75E-1,-7.1E0));
#290=DIRECTION('',(-1.E0,0.E0,0.E0));
#291=DIRECTION('',(0.E0,0.E0,1.E0));
#292=AXIS2_PLACEMENT_3D('',#289,#290,#291);
#293=PLANE('',#292);
#294=ORIENTED_EDGE('',*,*,#279,.T.);
#295=ORIENTED_EDGE('',*,*,#252,.F.);
#297=ORIENTED_EDGE('',*,*,#296,.T.);
#299=ORIENTED_EDGE('',*,*,#298,.T.);
#301=ORIENTED_EDGE('',*,*,#300,.F.);
#302=ORIENTED_EDGE('',*,*,#244,.F.);
#303=EDGE_LOOP('',(#294,#295,#297,#299,#301,#302));
#304=FACE_OUTER_BOUND('',#303,.F.);
#306=CARTESIAN_POINT('',(9.25E0,-2.75E-1,-7.1E0));
#307=DIRECTION('',(0.E0,0.E0,-1.E0));
#308=DIRECTION('',(-1.E0,0.E0,0.E0));
#309=AXIS2_PLACEMENT_3D('',#306,#307,#308);
#310=PLANE('',#309);
#311=ORIENTED_EDGE('',*,*,#250,.F.);
#313=ORIENTED_EDGE('',*,*,#312,.T.);
#315=ORIENTED_EDGE('',*,*,#314,.T.);
#316=ORIENTED_EDGE('',*,*,#296,.F.);
#317=EDGE_LOOP('',(#311,#313,#315,#316));
#318=FACE_OUTER_BOUND('',#317,.F.);
#320=CARTESIAN_POINT('',(9.25E0,-2.75E-1,7.1E0));
#321=DIRECTION('',(1.E0,0.E0,0.E0));
#322=DIRECTION('',(0.E0,0.E0,-1.E0));
#323=AXIS2_PLACEMENT_3D('',#320,#321,#322);
#324=PLANE('',#323);
#326=ORIENTED_EDGE('',*,*,#325,.T.);
#328=ORIENTED_EDGE('',*,*,#327,.T.);
#329=ORIENTED_EDGE('',*,*,#312,.F.);
#330=ORIENTED_EDGE('',*,*,#248,.F.);
#332=ORIENTED_EDGE('',*,*,#331,.T.);
#334=ORIENTED_EDGE('',*,*,#333,.T.);
#335=EDGE_LOOP('',(#326,#328,#329,#330,#332,#334));
#336=FACE_OUTER_BOUND('',#335,.F.);
#338=CARTESIAN_POINT('',(0.E0,2.75E-1,0.E0));
#339=DIRECTION('',(0.E0,1.E0,0.E0));
#340=DIRECTION('',(1.E0,0.E0,0.E0));
#341=AXIS2_PLACEMENT_3D('',#338,#339,#340);
#342=PLANE('',#341);
#343=ORIENTED_EDGE('',*,*,#325,.F.);
#345=ORIENTED_EDGE('',*,*,#344,.F.);
#347=ORIENTED_EDGE('',*,*,#346,.F.);
#349=ORIENTED_EDGE('',*,*,#348,.F.);
#350=EDGE_LOOP('',(#343,#345,#347,#349));
#351=FACE_OUTER_BOUND('',#350,.F.);
#353=CARTESIAN_POINT('',(-8.25E0,2.75E-1,3.E0));
#354=DIRECTION('',(0.E0,0.E0,1.E0));
#355=DIRECTION('',(1.E0,0.E0,0.E0));
#356=AXIS2_PLACEMENT_3D('',#353,#354,#355);
#357=PLANE('',#356);
#359=ORIENTED_EDGE('',*,*,#358,.T.);
#361=ORIENTED_EDGE('',*,*,#360,.F.);
#362=ORIENTED_EDGE('',*,*,#344,.T.);
#364=ORIENTED_EDGE('',*,*,#363,.T.);
#366=ORIENTED_EDGE('',*,*,#365,.T.);
#367=EDGE_LOOP('',(#359,#361,#362,#364,#366));
#368=FACE_OUTER_BOUND('',#367,.F.);
#370=CARTESIAN_POINT('',(0.E0,4.E-1,0.E0));
#371=DIRECTION('',(0.E0,1.E0,0.E0));
#372=DIRECTION('',(1.E0,0.E0,0.E0));
#373=AXIS2_PLACEMENT_3D('',#370,#371,#372);
#374=PLANE('',#373);
#376=ORIENTED_EDGE('',*,*,#375,.F.);
#378=ORIENTED_EDGE('',*,*,#377,.F.);
#380=ORIENTED_EDGE('',*,*,#379,.F.);
#381=ORIENTED_EDGE('',*,*,#358,.F.);
#382=EDGE_LOOP('',(#376,#378,#380,#381));
#383=FACE_OUTER_BOUND('',#382,.F.);
#385=CARTESIAN_POINT('',(-8.25E0,2.75E-1,-3.E0));
#386=DIRECTION('',(-1.E0,0.E0,0.E0));
#387=DIRECTION('',(0.E0,0.E0,1.E0));
#388=AXIS2_PLACEMENT_3D('',#385,#386,#387);
#389=PLANE('',#388);
#391=ORIENTED_EDGE('',*,*,#390,.F.);
#393=ORIENTED_EDGE('',*,*,#392,.T.);
#394=ORIENTED_EDGE('',*,*,#375,.T.);
#395=ORIENTED_EDGE('',*,*,#365,.F.);
#396=EDGE_LOOP('',(#391,#393,#394,#395));
#397=FACE_OUTER_BOUND('',#396,.F.);
#399=CARTESIAN_POINT('',(0.E0,2.75E-1,0.E0));
#400=DIRECTION('',(0.E0,1.E0,0.E0));
#401=DIRECTION('',(1.E0,0.E0,0.E0));
#402=AXIS2_PLACEMENT_3D('',#399,#400,#401);
#403=PLANE('',#402);
#404=ORIENTED_EDGE('',*,*,#390,.T.);
#405=ORIENTED_EDGE('',*,*,#363,.F.);
#406=ORIENTED_EDGE('',*,*,#333,.F.);
#408=ORIENTED_EDGE('',*,*,#407,.F.);
#409=ORIENTED_EDGE('',*,*,#298,.F.);
#410=ORIENTED_EDGE('',*,*,#314,.F.);
#411=ORIENTED_EDGE('',*,*,#327,.F.);
#413=ORIENTED_EDGE('',*,*,#412,.T.);
#414=EDGE_LOOP('',(#404,#405,#406,#408,#409,#410,#411,#413));
#415=FACE_OUTER_BOUND('',#414,.F.);
#417=CARTESIAN_POINT('',(-9.25E0,-2.75E-1,7.1E0));
#418=DIRECTION('',(0.E0,0.E0,1.E0));
#419=DIRECTION('',(1.E0,0.E0,0.E0));
#420=AXIS2_PLACEMENT_3D('',#417,#418,#419);
#421=PLANE('',#420);
#422=ORIENTED_EDGE('',*,*,#246,.F.);
#423=ORIENTED_EDGE('',*,*,#300,.T.);
#424=ORIENTED_EDGE('',*,*,#407,.T.);
#425=ORIENTED_EDGE('',*,*,#331,.F.);
#426=EDGE_LOOP('',(#422,#423,#424,#425));
#427=FACE_OUTER_BOUND('',#426,.F.);
#429=CARTESIAN_POINT('',(1.305E1,2.75E-1,-3.E0));
#430=DIRECTION('',(0.E0,0.E0,-1.E0));
#431=DIRECTION('',(-1.E0,0.E0,0.E0));
#432=AXIS2_PLACEMENT_3D('',#429,#430,#431);
#433=PLANE('',#432);
#434=ORIENTED_EDGE('',*,*,#348,.T.);
#436=ORIENTED_EDGE('',*,*,#435,.T.);
#437=ORIENTED_EDGE('',*,*,#377,.T.);
#438=ORIENTED_EDGE('',*,*,#392,.F.);
#439=ORIENTED_EDGE('',*,*,#412,.F.);
#440=EDGE_LOOP('',(#434,#436,#437,#438,#439));
#441=FACE_OUTER_BOUND('',#440,.F.);
#443=CARTESIAN_POINT('',(1.405E1,2.75E-1,2.E0));
#444=DIRECTION('',(1.E0,0.E0,0.E0));
#445=DIRECTION('',(0.E0,0.E0,-1.E0));
#446=AXIS2_PLACEMENT_3D('',#443,#444,#445);
#447=PLANE('',#446);
#448=ORIENTED_EDGE('',*,*,#379,.T.);
#449=ORIENTED_EDGE('',*,*,#435,.F.);
#450=ORIENTED_EDGE('',*,*,#346,.T.);
#451=ORIENTED_EDGE('',*,*,#360,.T.);
#452=EDGE_LOOP('',(#448,#449,#450,#451));
#453=FACE_OUTER_BOUND('',#452,.F.);
#455=CARTESIAN_POINT('',(-1.305E1,-2.75E-1,3.E0));
#456=DIRECTION('',(0.E0,0.E0,1.E0));
#457=DIRECTION('',(1.E0,0.E0,0.E0));
#458=AXIS2_PLACEMENT_3D('',#455,#456,#457);
#459=PLANE('',#458);
#461=ORIENTED_EDGE('',*,*,#460,.T.);
#463=ORIENTED_EDGE('',*,*,#462,.F.);
#464=ORIENTED_EDGE('',*,*,#281,.T.);
#465=ORIENTED_EDGE('',*,*,#242,.T.);
#467=ORIENTED_EDGE('',*,*,#466,.T.);
#468=EDGE_LOOP('',(#461,#463,#464,#465,#467));
#469=FACE_OUTER_BOUND('',#468,.F.);
#471=CARTESIAN_POINT('',(0.E0,-4.E-1,0.E0));
#472=DIRECTION('',(0.E0,1.E0,0.E0));
#473=DIRECTION('',(1.E0,0.E0,0.E0));
#474=AXIS2_PLACEMENT_3D('',#471,#472,#473);
#475=PLANE('',#474);
#476=ORIENTED_EDGE('',*,*,#266,.F.);
#478=ORIENTED_EDGE('',*,*,#477,.F.);
#479=ORIENTED_EDGE('',*,*,#460,.F.);
#481=ORIENTED_EDGE('',*,*,#480,.T.);
#482=EDGE_LOOP('',(#476,#478,#479,#481));
#483=FACE_OUTER_BOUND('',#482,.F.);
#485=CARTESIAN_POINT('',(-1.405E1,-2.75E-1,-2.E0));
#486=DIRECTION('',(-1.E0,0.E0,0.E0));
#487=DIRECTION('',(0.E0,0.E0,1.E0));
#488=AXIS2_PLACEMENT_3D('',#485,#486,#487);
#489=PLANE('',#488);
#490=ORIENTED_EDGE('',*,*,#283,.T.);
#491=ORIENTED_EDGE('',*,*,#462,.T.);
#492=ORIENTED_EDGE('',*,*,#477,.T.);
#493=ORIENTED_EDGE('',*,*,#264,.F.);
#494=EDGE_LOOP('',(#490,#491,#492,#493));
#495=FACE_OUTER_BOUND('',#494,.F.);
#497=CARTESIAN_POINT('',(8.25E0,-2.75E-1,3.E0));
#498=DIRECTION('',(1.E0,0.E0,0.E0));
#499=DIRECTION('',(0.E0,0.E0,-1.E0));
#500=AXIS2_PLACEMENT_3D('',#497,#498,#499);
#501=PLANE('',#500);
#502=ORIENTED_EDGE('',*,*,#268,.T.);
#503=ORIENTED_EDGE('',*,*,#480,.F.);
#504=ORIENTED_EDGE('',*,*,#466,.F.);
#505=ORIENTED_EDGE('',*,*,#240,.T.);
#506=EDGE_LOOP('',(#502,#503,#504,#505));
#507=FACE_OUTER_BOUND('',#506,.F.);
#509=CLOSED_SHELL('',(#256,#273,#288,#305,#319,#337,#352,#369,#384,#398,#416,
#428,#442,#454,#470,#484,#496,#508));
#510=MANIFOLD_SOLID_BREP('',#509);
#512=DIMENSIONAL_EXPONENTS(0.E0,0.E0,0.E0,0.E0,0.E0,0.E0,0.E0);
#514=PLANE_ANGLE_MEASURE_WITH_UNIT(PLANE_ANGLE_MEASURE(1.745329251994E-2),#513);
#515=(CONVERSION_BASED_UNIT('DEGREE',#514)NAMED_UNIT(*)PLANE_ANGLE_UNIT());
#517=UNCERTAINTY_MEASURE_WITH_UNIT(LENGTH_MEASURE(1.312209392687E-3),#511,
'closure',
'Maximum model space distance between geometric entities at asserted connectivities');
#520=APPLICATION_CONTEXT(
'CONFIGURATION CONTROLLED 3D DESIGNS OF MECHANICAL PARTS AND ASSEMBLIES');
#521=APPLICATION_PROTOCOL_DEFINITION('international standard',
'config_control_design',1994,#520);
#522=DESIGN_CONTEXT('',#520,'design');
#523=MECHANICAL_CONTEXT('',#520,'mechanical');
#524=PRODUCT('MF-LR730_20','MF-LR730_20','NOT SPECIFIED',(#523));
#525=PRODUCT_DEFINITION_FORMATION_WITH_SPECIFIED_SOURCE('2','LAST_VERSION',#524,
.MADE.);
#529=PRODUCT_CATEGORY('part','');
#530=PRODUCT_RELATED_PRODUCT_CATEGORY('detail','',(#524));
#531=PRODUCT_CATEGORY_RELATIONSHIP('','',#529,#530);
#532=SECURITY_CLASSIFICATION_LEVEL('unclassified');
#533=SECURITY_CLASSIFICATION('','',#532);
#534=CC_DESIGN_SECURITY_CLASSIFICATION(#533,(#525));
#535=APPROVAL_STATUS('approved');
#536=APPROVAL(#535,'');
#537=CC_DESIGN_APPROVAL(#536,(#533,#525,#526));
#538=CALENDAR_DATE(112,26,7);
#539=COORDINATED_UNIVERSAL_TIME_OFFSET(7,0,.BEHIND.);
#540=LOCAL_TIME(15,45,2.3E1,#539);
#541=DATE_AND_TIME(#538,#540);
#542=APPROVAL_DATE_TIME(#541,#536);
#543=DATE_TIME_ROLE('creation_date');
#544=CC_DESIGN_DATE_AND_TIME_ASSIGNMENT(#541,#543,(#526));
#545=DATE_TIME_ROLE('classification_date');
#546=CC_DESIGN_DATE_AND_TIME_ASSIGNMENT(#541,#545,(#533));
#547=PERSON('UNSPECIFIED','UNSPECIFIED',$,$,$,$);
#548=ORGANIZATION('UNSPECIFIED','UNSPECIFIED','UNSPECIFIED');
#549=PERSON_AND_ORGANIZATION(#547,#548);
#550=APPROVAL_ROLE('approver');
#551=APPROVAL_PERSON_ORGANIZATION(#549,#536,#550);
#552=PERSON_AND_ORGANIZATION_ROLE('creator');
#553=CC_DESIGN_PERSON_AND_ORGANIZATION_ASSIGNMENT(#549,#552,(#525,#526));
#554=PERSON_AND_ORGANIZATION_ROLE('design_supplier');
#555=CC_DESIGN_PERSON_AND_ORGANIZATION_ASSIGNMENT(#549,#554,(#525));
#556=PERSON_AND_ORGANIZATION_ROLE('classification_officer');
#557=CC_DESIGN_PERSON_AND_ORGANIZATION_ASSIGNMENT(#549,#556,(#533));
#558=PERSON_AND_ORGANIZATION_ROLE('design_owner');
#559=CC_DESIGN_PERSON_AND_ORGANIZATION_ASSIGNMENT(#549,#558,(#524));
#238=EDGE_CURVE('',#211,#212,#4,.T.);
#240=EDGE_CURVE('',#216,#212,#8,.T.);
#242=EDGE_CURVE('',#215,#216,#12,.T.);
#244=EDGE_CURVE('',#215,#179,#16,.T.);
#246=EDGE_CURVE('',#179,#180,#20,.T.);
#248=EDGE_CURVE('',#180,#182,#24,.T.);
#250=EDGE_CURVE('',#182,#184,#28,.T.);
#252=EDGE_CURVE('',#184,#211,#32,.T.);
#256=ADVANCED_FACE('',(#255),#237,.F.);
#262=EDGE_CURVE('',#211,#227,#36,.T.);
#264=EDGE_CURVE('',#227,#228,#172,.T.);
#266=EDGE_CURVE('',#228,#208,#40,.T.);
#268=EDGE_CURVE('',#212,#208,#44,.T.);
#273=ADVANCED_FACE('',(#272),#261,.T.);
#279=EDGE_CURVE('',#215,#211,#48,.T.);
#281=EDGE_CURVE('',#231,#215,#156,.T.);
#283=EDGE_CURVE('',#227,#231,#164,.T.);
#288=ADVANCED_FACE('',(#287),#278,.T.);
#296=EDGE_CURVE('',#184,#187,#52,.T.);
#298=EDGE_CURVE('',#187,#188,#104,.T.);
#300=EDGE_CURVE('',#179,#188,#120,.T.);
#305=ADVANCED_FACE('',(#304),#293,.T.);
#312=EDGE_CURVE('',#182,#192,#56,.T.);
#314=EDGE_CURVE('',#192,#187,#108,.T.);
#319=ADVANCED_FACE('',(#318),#310,.T.);
#325=EDGE_CURVE('',#202,#204,#60,.T.);
#327=EDGE_CURVE('',#204,#192,#112,.T.);
#331=EDGE_CURVE('',#180,#190,#64,.T.);
#333=EDGE_CURVE('',#190,#202,#96,.T.);
#337=ADVANCED_FACE('',(#336),#324,.T.);
#344=EDGE_CURVE('',#219,#202,#72,.T.);
#346=EDGE_CURVE('',#223,#219,#140,.T.);
#348=EDGE_CURVE('',#204,#223,#124,.T.);
#352=ADVANCED_FACE('',(#351),#342,.F.);
#358=EDGE_CURVE('',#196,#220,#68,.T.);
#360=EDGE_CURVE('',#219,#220,#144,.T.);
#363=EDGE_CURVE('',#202,#200,#92,.T.);
#365=EDGE_CURVE('',#200,#196,#76,.T.);
#369=ADVANCED_FACE('',(#368),#357,.T.);
#375=EDGE_CURVE('',#195,#196,#80,.T.);
#377=EDGE_CURVE('',#224,#195,#132,.T.);
#379=EDGE_CURVE('',#220,#224,#136,.T.);
#384=ADVANCED_FACE('',(#383),#374,.T.);
#390=EDGE_CURVE('',#199,#200,#88,.T.);
#392=EDGE_CURVE('',#199,#195,#84,.T.);
#398=ADVANCED_FACE('',(#397),#389,.T.);
#407=EDGE_CURVE('',#188,#190,#100,.T.);
#412=EDGE_CURVE('',#204,#199,#116,.T.);
#416=ADVANCED_FACE('',(#415),#403,.T.);
#428=ADVANCED_FACE('',(#427),#421,.T.);
#435=EDGE_CURVE('',#223,#224,#128,.T.);
#442=ADVANCED_FACE('',(#441),#433,.T.);
#454=ADVANCED_FACE('',(#453),#447,.T.);
#460=EDGE_CURVE('',#207,#232,#148,.T.);
#462=EDGE_CURVE('',#231,#232,#152,.T.);
#466=EDGE_CURVE('',#216,#207,#176,.T.);
#470=ADVANCED_FACE('',(#469),#459,.T.);
#477=EDGE_CURVE('',#232,#228,#168,.T.);
#480=EDGE_CURVE('',#207,#208,#160,.T.);
#484=ADVANCED_FACE('',(#483),#475,.F.);
#496=ADVANCED_FACE('',(#495),#489,.T.);
#508=ADVANCED_FACE('',(#507),#501,.T.);
#511=(LENGTH_UNIT()NAMED_UNIT(*)SI_UNIT(.MILLI.,.METRE.));
#513=(NAMED_UNIT(*)PLANE_ANGLE_UNIT()SI_UNIT($,.RADIAN.));
#516=(NAMED_UNIT(*)SI_UNIT($,.STERADIAN.)SOLID_ANGLE_UNIT());
#518=(GEOMETRIC_REPRESENTATION_CONTEXT(3)GLOBAL_UNCERTAINTY_ASSIGNED_CONTEXT((
#517))GLOBAL_UNIT_ASSIGNED_CONTEXT((#511,#515,#516))REPRESENTATION_CONTEXT
('ID1','3'));
#519=ADVANCED_BREP_SHAPE_REPRESENTATION('',(#510),#518);
#526=PRODUCT_DEFINITION('design','',#525,#522);
#527=PRODUCT_DEFINITION_SHAPE('','SHAPE FOR MF-LR730_20.',#526);
#528=SHAPE_DEFINITION_REPRESENTATION(#527,#519);
ENDSEC;
END-ISO-10303-21;
