ISO-10303-21;
HEADER;
FILE_DESCRIPTION((''),'2;1');
FILE_NAME('PT121','2012-07-13T',('ryans'),('Bourns, Inc.'),
'PRO/ENGINEER BY PARAMETRIC TECHNOLOGY CORPORATION, 2010100',
'PRO/ENGINEER BY PARAMETRIC TECHNOLOGY CORPORATION, 2010100','');
FILE_SCHEMA(('CONFIG_CONTROL_DESIGN'));
ENDSEC;
DATA;
#1=CARTESIAN_POINT('',(0.E0,0.E0,1.224646799147E-14));
#2=DIRECTION('',(0.E0,1.E0,0.E0));
#3=DIRECTION('',(1.E0,0.E0,0.E0));
#4=AXIS2_PLACEMENT_3D('',#1,#2,#3);
#6=CARTESIAN_POINT('',(0.E0,0.E0,1.224646799147E-14));
#7=DIRECTION('',(0.E0,1.E0,0.E0));
#8=DIRECTION('',(-1.E0,0.E0,0.E0));
#9=AXIS2_PLACEMENT_3D('',#6,#7,#8);
#11=CARTESIAN_POINT('',(0.E0,0.E0,-2.5E0));
#12=DIRECTION('',(0.E0,1.E0,0.E0));
#13=DIRECTION('',(1.E0,0.E0,0.E0));
#14=AXIS2_PLACEMENT_3D('',#11,#12,#13);
#16=CARTESIAN_POINT('',(0.E0,0.E0,-2.5E0));
#17=DIRECTION('',(0.E0,1.E0,0.E0));
#18=DIRECTION('',(-1.E0,0.E0,0.E0));
#19=AXIS2_PLACEMENT_3D('',#16,#17,#18);
#21=CARTESIAN_POINT('',(0.E0,0.E0,2.5E0));
#22=DIRECTION('',(0.E0,1.E0,0.E0));
#23=DIRECTION('',(1.E0,0.E0,0.E0));
#24=AXIS2_PLACEMENT_3D('',#21,#22,#23);
#26=CARTESIAN_POINT('',(0.E0,0.E0,2.5E0));
#27=DIRECTION('',(0.E0,1.E0,0.E0));
#28=DIRECTION('',(-1.E0,0.E0,0.E0));
#29=AXIS2_PLACEMENT_3D('',#26,#27,#28);
#31=DIRECTION('',(0.E0,1.E0,0.E0));
#32=VECTOR('',#31,1.27E1);
#33=CARTESIAN_POINT('',(5.075E0,0.E0,1.286797624204E-14));
#34=LINE('',#33,#32);
#35=DIRECTION('',(0.E0,1.E0,0.E0));
#36=VECTOR('',#35,1.27E1);
#37=CARTESIAN_POINT('',(-5.075E0,0.E0,1.162495974091E-14));
#38=LINE('',#37,#36);
#39=CARTESIAN_POINT('',(0.E0,1.27E1,1.224646799147E-14));
#40=DIRECTION('',(0.E0,1.E0,0.E0));
#41=DIRECTION('',(1.E0,0.E0,0.E0));
#42=AXIS2_PLACEMENT_3D('',#39,#40,#41);
#44=CARTESIAN_POINT('',(0.E0,1.27E1,1.224646799147E-14));
#45=DIRECTION('',(0.E0,1.E0,0.E0));
#46=DIRECTION('',(-1.E0,0.E0,0.E0));
#47=AXIS2_PLACEMENT_3D('',#44,#45,#46);
#49=DIRECTION('',(0.E0,-1.E0,0.E0));
#50=VECTOR('',#49,5.E0);
#51=CARTESIAN_POINT('',(3.5E-1,0.E0,-2.5E0));
#52=LINE('',#51,#50);
#53=DIRECTION('',(0.E0,-1.E0,0.E0));
#54=VECTOR('',#53,5.E0);
#55=CARTESIAN_POINT('',(-3.5E-1,0.E0,-2.5E0));
#56=LINE('',#55,#54);
#57=CARTESIAN_POINT('',(0.E0,-5.E0,-2.5E0));
#58=DIRECTION('',(0.E0,1.E0,0.E0));
#59=DIRECTION('',(1.E0,0.E0,0.E0));
#60=AXIS2_PLACEMENT_3D('',#57,#58,#59);
#62=CARTESIAN_POINT('',(0.E0,-5.E0,-2.5E0));
#63=DIRECTION('',(0.E0,1.E0,0.E0));
#64=DIRECTION('',(-1.E0,0.E0,0.E0));
#65=AXIS2_PLACEMENT_3D('',#62,#63,#64);
#67=CARTESIAN_POINT('',(0.E0,-5.E0,2.5E0));
#68=DIRECTION('',(0.E0,1.E0,0.E0));
#69=DIRECTION('',(1.E0,0.E0,0.E0));
#70=AXIS2_PLACEMENT_3D('',#67,#68,#69);
#72=CARTESIAN_POINT('',(0.E0,-5.E0,2.5E0));
#73=DIRECTION('',(0.E0,1.E0,0.E0));
#74=DIRECTION('',(-1.E0,0.E0,0.E0));
#75=AXIS2_PLACEMENT_3D('',#72,#73,#74);
#77=DIRECTION('',(0.E0,-1.E0,0.E0));
#78=VECTOR('',#77,5.E0);
#79=CARTESIAN_POINT('',(3.5E-1,0.E0,2.5E0));
#80=LINE('',#79,#78);
#81=DIRECTION('',(0.E0,-1.E0,0.E0));
#82=VECTOR('',#81,5.E0);
#83=CARTESIAN_POINT('',(-3.5E-1,0.E0,2.5E0));
#84=LINE('',#83,#82);
#85=CARTESIAN_POINT('',(5.075E0,0.E0,1.286797624204E-14));
#86=CARTESIAN_POINT('',(-5.075E0,0.E0,1.100345149034E-14));
#87=VERTEX_POINT('',#85);
#88=VERTEX_POINT('',#86);
#89=CARTESIAN_POINT('',(5.075E0,1.27E1,1.286797624204E-14));
#90=CARTESIAN_POINT('',(-5.075E0,1.27E1,1.100345149034E-14));
#91=VERTEX_POINT('',#89);
#92=VERTEX_POINT('',#90);
#93=CARTESIAN_POINT('',(3.5E-1,-5.E0,-2.5E0));
#94=CARTESIAN_POINT('',(-3.5E-1,-5.E0,-2.5E0));
#95=VERTEX_POINT('',#93);
#96=VERTEX_POINT('',#94);
#97=CARTESIAN_POINT('',(3.5E-1,-5.E0,2.5E0));
#98=CARTESIAN_POINT('',(-3.5E-1,-5.E0,2.5E0));
#99=VERTEX_POINT('',#97);
#100=VERTEX_POINT('',#98);
#101=CARTESIAN_POINT('',(3.5E-1,0.E0,-2.5E0));
#102=CARTESIAN_POINT('',(-3.5E-1,0.E0,-2.5E0));
#103=VERTEX_POINT('',#101);
#104=VERTEX_POINT('',#102);
#105=CARTESIAN_POINT('',(3.5E-1,0.E0,2.5E0));
#106=CARTESIAN_POINT('',(-3.5E-1,0.E0,2.5E0));
#107=VERTEX_POINT('',#105);
#108=VERTEX_POINT('',#106);
#109=CARTESIAN_POINT('',(0.E0,0.E0,0.E0));
#110=DIRECTION('',(0.E0,1.E0,0.E0));
#111=DIRECTION('',(1.E0,0.E0,0.E0));
#112=AXIS2_PLACEMENT_3D('',#109,#110,#111);
#113=PLANE('',#112);
#115=ORIENTED_EDGE('',*,*,#114,.T.);
#117=ORIENTED_EDGE('',*,*,#116,.T.);
#118=EDGE_LOOP('',(#115,#117));
#119=FACE_OUTER_BOUND('',#118,.F.);
#121=ORIENTED_EDGE('',*,*,#120,.F.);
#123=ORIENTED_EDGE('',*,*,#122,.F.);
#124=EDGE_LOOP('',(#121,#123));
#125=FACE_BOUND('',#124,.F.);
#127=ORIENTED_EDGE('',*,*,#126,.F.);
#129=ORIENTED_EDGE('',*,*,#128,.F.);
#130=EDGE_LOOP('',(#127,#129));
#131=FACE_BOUND('',#130,.F.);
#133=CARTESIAN_POINT('',(0.E0,0.E0,1.224646799147E-14));
#134=DIRECTION('',(0.E0,1.E0,0.E0));
#135=DIRECTION('',(1.E0,0.E0,0.E0));
#136=AXIS2_PLACEMENT_3D('',#133,#134,#135);
#137=CYLINDRICAL_SURFACE('',#136,5.075E0);
#138=ORIENTED_EDGE('',*,*,#114,.F.);
#140=ORIENTED_EDGE('',*,*,#139,.T.);
#142=ORIENTED_EDGE('',*,*,#141,.T.);
#144=ORIENTED_EDGE('',*,*,#143,.F.);
#145=EDGE_LOOP('',(#138,#140,#142,#144));
#146=FACE_OUTER_BOUND('',#145,.F.);
#148=CARTESIAN_POINT('',(0.E0,0.E0,1.224646799147E-14));
#149=DIRECTION('',(0.E0,1.E0,0.E0));
#150=DIRECTION('',(1.E0,0.E0,0.E0));
#151=AXIS2_PLACEMENT_3D('',#148,#149,#150);
#152=CYLINDRICAL_SURFACE('',#151,5.075E0);
#153=ORIENTED_EDGE('',*,*,#116,.F.);
#154=ORIENTED_EDGE('',*,*,#143,.T.);
#156=ORIENTED_EDGE('',*,*,#155,.T.);
#157=ORIENTED_EDGE('',*,*,#139,.F.);
#158=EDGE_LOOP('',(#153,#154,#156,#157));
#159=FACE_OUTER_BOUND('',#158,.F.);
#161=CARTESIAN_POINT('',(0.E0,1.27E1,0.E0));
#162=DIRECTION('',(0.E0,1.E0,0.E0));
#163=DIRECTION('',(1.E0,0.E0,0.E0));
#164=AXIS2_PLACEMENT_3D('',#161,#162,#163);
#165=PLANE('',#164);
#166=ORIENTED_EDGE('',*,*,#141,.F.);
#167=ORIENTED_EDGE('',*,*,#155,.F.);
#168=EDGE_LOOP('',(#166,#167));
#169=FACE_OUTER_BOUND('',#168,.F.);
#171=CARTESIAN_POINT('',(0.E0,0.E0,-2.5E0));
#172=DIRECTION('',(0.E0,1.E0,0.E0));
#173=DIRECTION('',(1.E0,0.E0,0.E0));
#174=AXIS2_PLACEMENT_3D('',#171,#172,#173);
#175=CYLINDRICAL_SURFACE('',#174,3.5E-1);
#176=ORIENTED_EDGE('',*,*,#120,.T.);
#178=ORIENTED_EDGE('',*,*,#177,.T.);
#180=ORIENTED_EDGE('',*,*,#179,.F.);
#182=ORIENTED_EDGE('',*,*,#181,.F.);
#183=EDGE_LOOP('',(#176,#178,#180,#182));
#184=FACE_OUTER_BOUND('',#183,.F.);
#186=CARTESIAN_POINT('',(0.E0,0.E0,-2.5E0));
#187=DIRECTION('',(0.E0,1.E0,0.E0));
#188=DIRECTION('',(1.E0,0.E0,0.E0));
#189=AXIS2_PLACEMENT_3D('',#186,#187,#188);
#190=CYLINDRICAL_SURFACE('',#189,3.5E-1);
#191=ORIENTED_EDGE('',*,*,#122,.T.);
#192=ORIENTED_EDGE('',*,*,#181,.T.);
#194=ORIENTED_EDGE('',*,*,#193,.F.);
#195=ORIENTED_EDGE('',*,*,#177,.F.);
#196=EDGE_LOOP('',(#191,#192,#194,#195));
#197=FACE_OUTER_BOUND('',#196,.F.);
#199=CARTESIAN_POINT('',(0.E0,-5.E0,0.E0));
#200=DIRECTION('',(0.E0,1.E0,0.E0));
#201=DIRECTION('',(1.E0,0.E0,0.E0));
#202=AXIS2_PLACEMENT_3D('',#199,#200,#201);
#203=PLANE('',#202);
#204=ORIENTED_EDGE('',*,*,#179,.T.);
#205=ORIENTED_EDGE('',*,*,#193,.T.);
#206=EDGE_LOOP('',(#204,#205));
#207=FACE_OUTER_BOUND('',#206,.F.);
#209=CARTESIAN_POINT('',(0.E0,-5.E0,0.E0));
#210=DIRECTION('',(0.E0,1.E0,0.E0));
#211=DIRECTION('',(1.E0,0.E0,0.E0));
#212=AXIS2_PLACEMENT_3D('',#209,#210,#211);
#213=PLANE('',#212);
#215=ORIENTED_EDGE('',*,*,#214,.T.);
#217=ORIENTED_EDGE('',*,*,#216,.T.);
#218=EDGE_LOOP('',(#215,#217));
#219=FACE_OUTER_BOUND('',#218,.F.);
#221=CARTESIAN_POINT('',(0.E0,0.E0,2.5E0));
#222=DIRECTION('',(0.E0,1.E0,0.E0));
#223=DIRECTION('',(1.E0,0.E0,0.E0));
#224=AXIS2_PLACEMENT_3D('',#221,#222,#223);
#225=CYLINDRICAL_SURFACE('',#224,3.5E-1);
#226=ORIENTED_EDGE('',*,*,#126,.T.);
#228=ORIENTED_EDGE('',*,*,#227,.T.);
#229=ORIENTED_EDGE('',*,*,#214,.F.);
#231=ORIENTED_EDGE('',*,*,#230,.F.);
#232=EDGE_LOOP('',(#226,#228,#229,#231));
#233=FACE_OUTER_BOUND('',#232,.F.);
#235=CARTESIAN_POINT('',(0.E0,0.E0,2.5E0));
#236=DIRECTION('',(0.E0,1.E0,0.E0));
#237=DIRECTION('',(1.E0,0.E0,0.E0));
#238=AXIS2_PLACEMENT_3D('',#235,#236,#237);
#239=CYLINDRICAL_SURFACE('',#238,3.5E-1);
#240=ORIENTED_EDGE('',*,*,#128,.T.);
#241=ORIENTED_EDGE('',*,*,#230,.T.);
#242=ORIENTED_EDGE('',*,*,#216,.F.);
#243=ORIENTED_EDGE('',*,*,#227,.F.);
#244=EDGE_LOOP('',(#240,#241,#242,#243));
#245=FACE_OUTER_BOUND('',#244,.F.);
#247=CLOSED_SHELL('',(#132,#147,#160,#170,#185,#198,#208,#220,#234,#246));
#248=MANIFOLD_SOLID_BREP('',#247);
#250=DIMENSIONAL_EXPONENTS(0.E0,0.E0,0.E0,0.E0,0.E0,0.E0,0.E0);
#252=PLANE_ANGLE_MEASURE_WITH_UNIT(PLANE_ANGLE_MEASURE(1.745329251994E-2),#251);
#253=(CONVERSION_BASED_UNIT('DEGREE',#252)NAMED_UNIT(*)PLANE_ANGLE_UNIT());
#255=UNCERTAINTY_MEASURE_WITH_UNIT(LENGTH_MEASURE(9.495640069093E-4),#249,
'closure',
'Maximum model space distance between geometric entities at asserted connectivities');
#258=APPLICATION_CONTEXT(
'CONFIGURATION CONTROLLED 3D DESIGNS OF MECHANICAL PARTS AND ASSEMBLIES');
#259=APPLICATION_PROTOCOL_DEFINITION('international standard',
'config_control_design',1994,#258);
#260=DESIGN_CONTEXT('',#258,'design');
#261=MECHANICAL_CONTEXT('',#258,'mechanical');
#262=PRODUCT('PT121','PT121','NOT SPECIFIED',(#261));
#263=PRODUCT_DEFINITION_FORMATION_WITH_SPECIFIED_SOURCE('1','LAST_VERSION',#262,
.MADE.);
#267=PRODUCT_CATEGORY('part','');
#268=PRODUCT_RELATED_PRODUCT_CATEGORY('detail','',(#262));
#269=PRODUCT_CATEGORY_RELATIONSHIP('','',#267,#268);
#270=SECURITY_CLASSIFICATION_LEVEL('unclassified');
#271=SECURITY_CLASSIFICATION('','',#270);
#272=CC_DESIGN_SECURITY_CLASSIFICATION(#271,(#263));
#273=APPROVAL_STATUS('approved');
#274=APPROVAL(#273,'');
#275=CC_DESIGN_APPROVAL(#274,(#271,#263,#264));
#276=CALENDAR_DATE(112,13,7);
#277=COORDINATED_UNIVERSAL_TIME_OFFSET(7,0,.BEHIND.);
#278=LOCAL_TIME(16,9,4.9E1,#277);
#279=DATE_AND_TIME(#276,#278);
#280=APPROVAL_DATE_TIME(#279,#274);
#281=DATE_TIME_ROLE('creation_date');
#282=CC_DESIGN_DATE_AND_TIME_ASSIGNMENT(#279,#281,(#264));
#283=DATE_TIME_ROLE('classification_date');
#284=CC_DESIGN_DATE_AND_TIME_ASSIGNMENT(#279,#283,(#271));
#285=PERSON('UNSPECIFIED','UNSPECIFIED',$,$,$,$);
#286=ORGANIZATION('UNSPECIFIED','UNSPECIFIED','UNSPECIFIED');
#287=PERSON_AND_ORGANIZATION(#285,#286);
#288=APPROVAL_ROLE('approver');
#289=APPROVAL_PERSON_ORGANIZATION(#287,#274,#288);
#290=PERSON_AND_ORGANIZATION_ROLE('creator');
#291=CC_DESIGN_PERSON_AND_ORGANIZATION_ASSIGNMENT(#287,#290,(#263,#264));
#292=PERSON_AND_ORGANIZATION_ROLE('design_supplier');
#293=CC_DESIGN_PERSON_AND_ORGANIZATION_ASSIGNMENT(#287,#292,(#263));
#294=PERSON_AND_ORGANIZATION_ROLE('classification_officer');
#295=CC_DESIGN_PERSON_AND_ORGANIZATION_ASSIGNMENT(#287,#294,(#271));
#296=PERSON_AND_ORGANIZATION_ROLE('design_owner');
#297=CC_DESIGN_PERSON_AND_ORGANIZATION_ASSIGNMENT(#287,#296,(#262));
#5=CIRCLE('',#4,5.075E0);
#10=CIRCLE('',#9,5.075E0);
#15=CIRCLE('',#14,3.5E-1);
#20=CIRCLE('',#19,3.5E-1);
#25=CIRCLE('',#24,3.5E-1);
#30=CIRCLE('',#29,3.5E-1);
#43=CIRCLE('',#42,5.075E0);
#48=CIRCLE('',#47,5.075E0);
#61=CIRCLE('',#60,3.5E-1);
#66=CIRCLE('',#65,3.5E-1);
#71=CIRCLE('',#70,3.5E-1);
#76=CIRCLE('',#75,3.5E-1);
#114=EDGE_CURVE('',#87,#88,#5,.T.);
#116=EDGE_CURVE('',#88,#87,#10,.T.);
#120=EDGE_CURVE('',#103,#104,#15,.T.);
#122=EDGE_CURVE('',#104,#103,#20,.T.);
#126=EDGE_CURVE('',#107,#108,#25,.T.);
#128=EDGE_CURVE('',#108,#107,#30,.T.);
#132=ADVANCED_FACE('',(#119,#125,#131),#113,.F.);
#139=EDGE_CURVE('',#87,#91,#34,.T.);
#141=EDGE_CURVE('',#91,#92,#43,.T.);
#143=EDGE_CURVE('',#88,#92,#38,.T.);
#147=ADVANCED_FACE('',(#146),#137,.T.);
#155=EDGE_CURVE('',#92,#91,#48,.T.);
#160=ADVANCED_FACE('',(#159),#152,.T.);
#170=ADVANCED_FACE('',(#169),#165,.T.);
#177=EDGE_CURVE('',#104,#96,#56,.T.);
#179=EDGE_CURVE('',#95,#96,#61,.T.);
#181=EDGE_CURVE('',#103,#95,#52,.T.);
#185=ADVANCED_FACE('',(#184),#175,.T.);
#193=EDGE_CURVE('',#96,#95,#66,.T.);
#198=ADVANCED_FACE('',(#197),#190,.T.);
#208=ADVANCED_FACE('',(#207),#203,.F.);
#214=EDGE_CURVE('',#99,#100,#71,.T.);
#216=EDGE_CURVE('',#100,#99,#76,.T.);
#220=ADVANCED_FACE('',(#219),#213,.F.);
#227=EDGE_CURVE('',#108,#100,#84,.T.);
#230=EDGE_CURVE('',#107,#99,#80,.T.);
#234=ADVANCED_FACE('',(#233),#225,.T.);
#246=ADVANCED_FACE('',(#245),#239,.T.);
#249=(LENGTH_UNIT()NAMED_UNIT(*)SI_UNIT(.MILLI.,.METRE.));
#251=(NAMED_UNIT(*)PLANE_ANGLE_UNIT()SI_UNIT($,.RADIAN.));
#254=(NAMED_UNIT(*)SI_UNIT($,.STERADIAN.)SOLID_ANGLE_UNIT());
#256=(GEOMETRIC_REPRESENTATION_CONTEXT(3)GLOBAL_UNCERTAINTY_ASSIGNED_CONTEXT((
#255))GLOBAL_UNIT_ASSIGNED_CONTEXT((#249,#253,#254))REPRESENTATION_CONTEXT
('ID1','3'));
#257=ADVANCED_BREP_SHAPE_REPRESENTATION('',(#248),#256);
#264=PRODUCT_DEFINITION('design','',#263,#260);
#265=PRODUCT_DEFINITION_SHAPE('','SHAPE FOR PT121.',#264);
#266=SHAPE_DEFINITION_REPRESENTATION(#265,#257);
ENDSEC;
END-ISO-10303-21;
