ISO-10303-21;
HEADER;
FILE_DESCRIPTION((''),'2;1');
FILE_NAME('PWR1913','2012-08-17T',('ryans'),('Bourns, Inc.'),
'PRO/ENGINEER BY PARAMETRIC TECHNOLOGY CORPORATION, 2010100',
'PRO/ENGINEER BY PARAMETRIC TECHNOLOGY CORPORATION, 2010100','');
FILE_SCHEMA(('CONFIG_CONTROL_DESIGN'));
ENDSEC;
DATA;
#1=DIRECTION('',(0.E0,0.E0,-1.E0));
#2=VECTOR('',#1,1.5E0);
#3=CARTESIAN_POINT('',(1.4E0,0.E0,7.5E-1));
#4=LINE('',#3,#2);
#5=DIRECTION('',(-1.E0,0.E0,0.E0));
#6=VECTOR('',#5,9.5E-1);
#7=CARTESIAN_POINT('',(2.35E0,0.E0,-7.5E-1));
#8=LINE('',#7,#6);
#9=DIRECTION('',(0.E0,0.E0,-1.E0));
#10=VECTOR('',#9,9.E-1);
#11=CARTESIAN_POINT('',(2.35E0,0.E0,-7.5E-1));
#12=LINE('',#11,#10);
#13=DIRECTION('',(-1.E0,0.E0,0.E0));
#14=VECTOR('',#13,4.7E0);
#15=CARTESIAN_POINT('',(2.35E0,0.E0,-1.65E0));
#16=LINE('',#15,#14);
#17=DIRECTION('',(0.E0,0.E0,1.E0));
#18=VECTOR('',#17,9.E-1);
#19=CARTESIAN_POINT('',(-2.35E0,0.E0,-1.65E0));
#20=LINE('',#19,#18);
#21=DIRECTION('',(1.E0,0.E0,0.E0));
#22=VECTOR('',#21,9.5E-1);
#23=CARTESIAN_POINT('',(-2.35E0,0.E0,-7.5E-1));
#24=LINE('',#23,#22);
#25=DIRECTION('',(0.E0,0.E0,1.E0));
#26=VECTOR('',#25,1.5E0);
#27=CARTESIAN_POINT('',(-1.4E0,0.E0,-7.5E-1));
#28=LINE('',#27,#26);
#29=DIRECTION('',(1.E0,0.E0,0.E0));
#30=VECTOR('',#29,9.5E-1);
#31=CARTESIAN_POINT('',(-2.35E0,0.E0,7.5E-1));
#32=LINE('',#31,#30);
#33=DIRECTION('',(0.E0,0.E0,1.E0));
#34=VECTOR('',#33,9.E-1);
#35=CARTESIAN_POINT('',(-2.35E0,0.E0,7.5E-1));
#36=LINE('',#35,#34);
#37=DIRECTION('',(1.E0,0.E0,0.E0));
#38=VECTOR('',#37,4.7E0);
#39=CARTESIAN_POINT('',(-2.35E0,0.E0,1.65E0));
#40=LINE('',#39,#38);
#41=DIRECTION('',(0.E0,0.E0,-1.E0));
#42=VECTOR('',#41,9.E-1);
#43=CARTESIAN_POINT('',(2.35E0,0.E0,1.65E0));
#44=LINE('',#43,#42);
#45=DIRECTION('',(-1.E0,0.E0,0.E0));
#46=VECTOR('',#45,9.5E-1);
#47=CARTESIAN_POINT('',(2.35E0,0.E0,7.5E-1));
#48=LINE('',#47,#46);
#49=CARTESIAN_POINT('',(0.E0,0.E0,0.E0));
#50=DIRECTION('',(0.E0,-1.E0,0.E0));
#51=DIRECTION('',(1.E0,0.E0,0.E0));
#52=AXIS2_PLACEMENT_3D('',#49,#50,#51);
#54=CARTESIAN_POINT('',(0.E0,0.E0,0.E0));
#55=DIRECTION('',(0.E0,-1.E0,0.E0));
#56=DIRECTION('',(-1.E0,0.E0,0.E0));
#57=AXIS2_PLACEMENT_3D('',#54,#55,#56);
#59=DIRECTION('',(0.E0,-1.E0,0.E0));
#60=VECTOR('',#59,1.5E-1);
#61=CARTESIAN_POINT('',(1.4E0,0.E0,7.5E-1));
#62=LINE('',#61,#60);
#63=DIRECTION('',(0.E0,-1.E0,0.E0));
#64=VECTOR('',#63,1.76E0);
#65=CARTESIAN_POINT('',(2.4E0,1.61E0,7.5E-1));
#66=LINE('',#65,#64);
#67=DIRECTION('',(0.E0,0.E0,1.E0));
#68=VECTOR('',#67,1.5E0);
#69=CARTESIAN_POINT('',(2.35E0,1.61E0,-7.5E-1));
#70=LINE('',#69,#68);
#71=DIRECTION('',(0.E0,1.E0,0.E0));
#72=VECTOR('',#71,1.61E0);
#73=CARTESIAN_POINT('',(2.35E0,0.E0,7.5E-1));
#74=LINE('',#73,#72);
#75=DIRECTION('',(0.E0,1.E0,0.E0));
#76=VECTOR('',#75,2.65E0);
#77=CARTESIAN_POINT('',(2.35E0,0.E0,1.65E0));
#78=LINE('',#77,#76);
#79=DIRECTION('',(0.E0,1.E0,0.E0));
#80=VECTOR('',#79,1.61E0);
#81=CARTESIAN_POINT('',(2.35E0,0.E0,-7.5E-1));
#82=LINE('',#81,#80);
#83=DIRECTION('',(-1.E0,0.E0,0.E0));
#84=VECTOR('',#83,4.999999999999E-2);
#85=CARTESIAN_POINT('',(-2.35E0,1.61E0,7.5E-1));
#86=LINE('',#85,#84);
#87=DIRECTION('',(0.E0,0.E0,-1.E0));
#88=VECTOR('',#87,1.5E0);
#89=CARTESIAN_POINT('',(-2.4E0,1.61E0,7.5E-1));
#90=LINE('',#89,#88);
#91=DIRECTION('',(1.E0,0.E0,0.E0));
#92=VECTOR('',#91,4.999999999999E-2);
#93=CARTESIAN_POINT('',(-2.4E0,1.61E0,-7.5E-1));
#94=LINE('',#93,#92);
#95=DIRECTION('',(1.E0,0.E0,0.E0));
#96=VECTOR('',#95,5.000000000001E-2);
#97=CARTESIAN_POINT('',(2.35E0,1.61E0,-7.5E-1));
#98=LINE('',#97,#96);
#99=DIRECTION('',(0.E0,0.E0,1.E0));
#100=VECTOR('',#99,1.5E0);
#101=CARTESIAN_POINT('',(2.4E0,1.61E0,-7.5E-1));
#102=LINE('',#101,#100);
#103=DIRECTION('',(-1.E0,0.E0,0.E0));
#104=VECTOR('',#103,5.000000000001E-2);
#105=CARTESIAN_POINT('',(2.4E0,1.61E0,7.5E-1));
#106=LINE('',#105,#104);
#107=DIRECTION('',(0.E0,0.E0,1.E0));
#108=VECTOR('',#107,1.5E0);
#109=CARTESIAN_POINT('',(-2.35E0,1.61E0,-7.5E-1));
#110=LINE('',#109,#108);
#111=DIRECTION('',(0.E0,1.E0,0.E0));
#112=VECTOR('',#111,1.61E0);
#113=CARTESIAN_POINT('',(-2.35E0,0.E0,-7.5E-1));
#114=LINE('',#113,#112);
#115=DIRECTION('',(0.E0,1.E0,0.E0));
#116=VECTOR('',#115,2.65E0);
#117=CARTESIAN_POINT('',(-2.35E0,0.E0,-1.65E0));
#118=LINE('',#117,#116);
#119=DIRECTION('',(0.E0,1.E0,0.E0));
#120=VECTOR('',#119,1.61E0);
#121=CARTESIAN_POINT('',(-2.35E0,0.E0,7.5E-1));
#122=LINE('',#121,#120);
#123=DIRECTION('',(0.E0,-1.E0,0.E0));
#124=VECTOR('',#123,1.76E0);
#125=CARTESIAN_POINT('',(-2.4E0,1.61E0,-7.5E-1));
#126=LINE('',#125,#124);
#127=DIRECTION('',(0.E0,-1.E0,0.E0));
#128=VECTOR('',#127,1.76E0);
#129=CARTESIAN_POINT('',(-2.4E0,1.61E0,7.5E-1));
#130=LINE('',#129,#128);
#131=DIRECTION('',(0.E0,-1.E0,0.E0));
#132=VECTOR('',#131,1.5E-1);
#133=CARTESIAN_POINT('',(-1.4E0,0.E0,7.5E-1));
#134=LINE('',#133,#132);
#135=DIRECTION('',(0.E0,-1.E0,0.E0));
#136=VECTOR('',#135,1.5E-1);
#137=CARTESIAN_POINT('',(-1.4E0,0.E0,-7.5E-1));
#138=LINE('',#137,#136);
#139=CARTESIAN_POINT('',(0.E0,-1.5E-1,0.E0));
#140=DIRECTION('',(0.E0,-1.E0,0.E0));
#141=DIRECTION('',(1.E0,0.E0,0.E0));
#142=AXIS2_PLACEMENT_3D('',#139,#140,#141);
#144=CARTESIAN_POINT('',(0.E0,-1.5E-1,0.E0));
#145=DIRECTION('',(0.E0,-1.E0,0.E0));
#146=DIRECTION('',(-1.E0,0.E0,0.E0));
#147=AXIS2_PLACEMENT_3D('',#144,#145,#146);
#149=DIRECTION('',(0.E0,0.E0,-1.E0));
#150=VECTOR('',#149,1.5E0);
#151=CARTESIAN_POINT('',(1.4E0,-1.5E-1,7.5E-1));
#152=LINE('',#151,#150);
#153=DIRECTION('',(-1.E0,0.E0,0.E0));
#154=VECTOR('',#153,1.E0);
#155=CARTESIAN_POINT('',(2.4E0,-1.5E-1,7.5E-1));
#156=LINE('',#155,#154);
#157=DIRECTION('',(0.E0,0.E0,1.E0));
#158=VECTOR('',#157,1.5E0);
#159=CARTESIAN_POINT('',(2.4E0,-1.5E-1,-7.5E-1));
#160=LINE('',#159,#158);
#161=DIRECTION('',(1.E0,0.E0,0.E0));
#162=VECTOR('',#161,1.E0);
#163=CARTESIAN_POINT('',(1.4E0,-1.5E-1,-7.5E-1));
#164=LINE('',#163,#162);
#165=DIRECTION('',(-1.E0,0.E0,0.E0));
#166=VECTOR('',#165,1.E0);
#167=CARTESIAN_POINT('',(-1.4E0,-1.5E-1,7.5E-1));
#168=LINE('',#167,#166);
#169=DIRECTION('',(0.E0,0.E0,1.E0));
#170=VECTOR('',#169,1.5E0);
#171=CARTESIAN_POINT('',(-1.4E0,-1.5E-1,-7.5E-1));
#172=LINE('',#171,#170);
#173=DIRECTION('',(1.E0,0.E0,0.E0));
#174=VECTOR('',#173,1.E0);
#175=CARTESIAN_POINT('',(-2.4E0,-1.5E-1,-7.5E-1));
#176=LINE('',#175,#174);
#177=DIRECTION('',(0.E0,0.E0,-1.E0));
#178=VECTOR('',#177,1.5E0);
#179=CARTESIAN_POINT('',(-2.4E0,-1.5E-1,7.5E-1));
#180=LINE('',#179,#178);
#181=DIRECTION('',(0.E0,-1.E0,0.E0));
#182=VECTOR('',#181,1.5E-1);
#183=CARTESIAN_POINT('',(1.25E0,0.E0,0.E0));
#184=LINE('',#183,#182);
#185=DIRECTION('',(0.E0,-1.E0,0.E0));
#186=VECTOR('',#185,1.5E-1);
#187=CARTESIAN_POINT('',(-1.25E0,0.E0,0.E0));
#188=LINE('',#187,#186);
#189=DIRECTION('',(0.E0,-1.E0,0.E0));
#190=VECTOR('',#189,1.76E0);
#191=CARTESIAN_POINT('',(2.4E0,1.61E0,-7.5E-1));
#192=LINE('',#191,#190);
#193=DIRECTION('',(0.E0,-1.E0,0.E0));
#194=VECTOR('',#193,1.5E-1);
#195=CARTESIAN_POINT('',(1.4E0,0.E0,-7.5E-1));
#196=LINE('',#195,#194);
#197=DIRECTION('',(0.E0,1.E0,0.E0));
#198=VECTOR('',#197,2.65E0);
#199=CARTESIAN_POINT('',(2.35E0,0.E0,-1.65E0));
#200=LINE('',#199,#198);
#201=DIRECTION('',(0.E0,0.E0,1.E0));
#202=VECTOR('',#201,3.3E0);
#203=CARTESIAN_POINT('',(-2.35E0,2.65E0,-1.65E0));
#204=LINE('',#203,#202);
#205=DIRECTION('',(-1.E0,0.E0,0.E0));
#206=VECTOR('',#205,4.7E0);
#207=CARTESIAN_POINT('',(2.35E0,2.65E0,-1.65E0));
#208=LINE('',#207,#206);
#209=DIRECTION('',(0.E0,0.E0,-1.E0));
#210=VECTOR('',#209,3.3E0);
#211=CARTESIAN_POINT('',(2.35E0,2.65E0,1.65E0));
#212=LINE('',#211,#210);
#213=DIRECTION('',(1.E0,0.E0,0.E0));
#214=VECTOR('',#213,4.7E0);
#215=CARTESIAN_POINT('',(-2.35E0,2.65E0,1.65E0));
#216=LINE('',#215,#214);
#217=DIRECTION('',(0.E0,1.E0,0.E0));
#218=VECTOR('',#217,2.65E0);
#219=CARTESIAN_POINT('',(-2.35E0,0.E0,1.65E0));
#220=LINE('',#219,#218);
#221=CARTESIAN_POINT('',(-2.35E0,0.E0,1.65E0));
#222=CARTESIAN_POINT('',(2.35E0,0.E0,1.65E0));
#223=VERTEX_POINT('',#221);
#224=VERTEX_POINT('',#222);
#225=CARTESIAN_POINT('',(2.35E0,0.E0,-1.65E0));
#226=CARTESIAN_POINT('',(-2.35E0,0.E0,-1.65E0));
#227=VERTEX_POINT('',#225);
#228=VERTEX_POINT('',#226);
#229=CARTESIAN_POINT('',(-2.35E0,2.65E0,-1.65E0));
#230=CARTESIAN_POINT('',(-2.35E0,2.65E0,1.65E0));
#231=VERTEX_POINT('',#229);
#232=VERTEX_POINT('',#230);
#233=CARTESIAN_POINT('',(2.35E0,2.65E0,1.65E0));
#234=VERTEX_POINT('',#233);
#235=CARTESIAN_POINT('',(2.35E0,2.65E0,-1.65E0));
#236=VERTEX_POINT('',#235);
#237=CARTESIAN_POINT('',(2.4E0,1.61E0,-7.5E-1));
#238=CARTESIAN_POINT('',(2.4E0,1.61E0,7.5E-1));
#239=VERTEX_POINT('',#237);
#240=VERTEX_POINT('',#238);
#241=CARTESIAN_POINT('',(-2.4E0,1.61E0,7.5E-1));
#242=CARTESIAN_POINT('',(-2.4E0,1.61E0,-7.5E-1));
#243=VERTEX_POINT('',#241);
#244=VERTEX_POINT('',#242);
#245=CARTESIAN_POINT('',(1.4E0,-1.5E-1,7.5E-1));
#246=CARTESIAN_POINT('',(1.4E0,-1.5E-1,-7.5E-1));
#247=VERTEX_POINT('',#245);
#248=VERTEX_POINT('',#246);
#249=CARTESIAN_POINT('',(2.4E0,-1.5E-1,-7.5E-1));
#250=VERTEX_POINT('',#249);
#251=CARTESIAN_POINT('',(2.4E0,-1.5E-1,7.5E-1));
#252=VERTEX_POINT('',#251);
#253=CARTESIAN_POINT('',(-1.4E0,-1.5E-1,7.5E-1));
#254=CARTESIAN_POINT('',(-2.4E0,-1.5E-1,7.5E-1));
#255=VERTEX_POINT('',#253);
#256=VERTEX_POINT('',#254);
#257=CARTESIAN_POINT('',(-2.4E0,-1.5E-1,-7.5E-1));
#258=VERTEX_POINT('',#257);
#259=CARTESIAN_POINT('',(-1.4E0,-1.5E-1,-7.5E-1));
#260=VERTEX_POINT('',#259);
#261=CARTESIAN_POINT('',(1.4E0,0.E0,7.5E-1));
#262=CARTESIAN_POINT('',(1.4E0,0.E0,-7.5E-1));
#263=VERTEX_POINT('',#261);
#264=VERTEX_POINT('',#262);
#265=CARTESIAN_POINT('',(2.35E0,0.E0,-7.5E-1));
#266=VERTEX_POINT('',#265);
#267=CARTESIAN_POINT('',(2.35E0,0.E0,7.5E-1));
#268=VERTEX_POINT('',#267);
#269=CARTESIAN_POINT('',(-2.35E0,0.E0,7.5E-1));
#270=CARTESIAN_POINT('',(-1.4E0,0.E0,7.5E-1));
#271=VERTEX_POINT('',#269);
#272=VERTEX_POINT('',#270);
#273=CARTESIAN_POINT('',(-2.35E0,0.E0,-7.5E-1));
#274=CARTESIAN_POINT('',(-1.4E0,0.E0,-7.5E-1));
#275=VERTEX_POINT('',#273);
#276=VERTEX_POINT('',#274);
#277=CARTESIAN_POINT('',(-2.35E0,1.61E0,-7.5E-1));
#278=CARTESIAN_POINT('',(-2.35E0,1.61E0,7.5E-1));
#279=VERTEX_POINT('',#277);
#280=VERTEX_POINT('',#278);
#281=CARTESIAN_POINT('',(2.35E0,1.61E0,-7.5E-1));
#282=CARTESIAN_POINT('',(2.35E0,1.61E0,7.5E-1));
#283=VERTEX_POINT('',#281);
#284=VERTEX_POINT('',#282);
#285=CARTESIAN_POINT('',(1.25E0,-1.5E-1,0.E0));
#286=CARTESIAN_POINT('',(-1.25E0,-1.5E-1,0.E0));
#287=VERTEX_POINT('',#285);
#288=VERTEX_POINT('',#286);
#289=CARTESIAN_POINT('',(1.25E0,0.E0,0.E0));
#290=CARTESIAN_POINT('',(-1.25E0,0.E0,0.E0));
#291=VERTEX_POINT('',#289);
#292=VERTEX_POINT('',#290);
#293=CARTESIAN_POINT('',(0.E0,0.E0,0.E0));
#294=DIRECTION('',(0.E0,1.E0,0.E0));
#295=DIRECTION('',(1.E0,0.E0,0.E0));
#296=AXIS2_PLACEMENT_3D('',#293,#294,#295);
#297=PLANE('',#296);
#299=ORIENTED_EDGE('',*,*,#298,.T.);
#301=ORIENTED_EDGE('',*,*,#300,.F.);
#303=ORIENTED_EDGE('',*,*,#302,.T.);
#305=ORIENTED_EDGE('',*,*,#304,.T.);
#307=ORIENTED_EDGE('',*,*,#306,.T.);
#309=ORIENTED_EDGE('',*,*,#308,.T.);
#311=ORIENTED_EDGE('',*,*,#310,.T.);
#313=ORIENTED_EDGE('',*,*,#312,.F.);
#315=ORIENTED_EDGE('',*,*,#314,.T.);
#317=ORIENTED_EDGE('',*,*,#316,.T.);
#319=ORIENTED_EDGE('',*,*,#318,.T.);
#321=ORIENTED_EDGE('',*,*,#320,.T.);
#322=EDGE_LOOP('',(#299,#301,#303,#305,#307,#309,#311,#313,#315,#317,#319,
#321));
#323=FACE_OUTER_BOUND('',#322,.F.);
#325=ORIENTED_EDGE('',*,*,#324,.T.);
#327=ORIENTED_EDGE('',*,*,#326,.T.);
#328=EDGE_LOOP('',(#325,#327));
#329=FACE_BOUND('',#328,.F.);
#331=CARTESIAN_POINT('',(1.4E0,1.61E0,7.5E-1));
#332=DIRECTION('',(-1.E0,0.E0,0.E0));
#333=DIRECTION('',(0.E0,0.E0,-1.E0));
#334=AXIS2_PLACEMENT_3D('',#331,#332,#333);
#335=PLANE('',#334);
#336=ORIENTED_EDGE('',*,*,#298,.F.);
#338=ORIENTED_EDGE('',*,*,#337,.T.);
#340=ORIENTED_EDGE('',*,*,#339,.T.);
#342=ORIENTED_EDGE('',*,*,#341,.F.);
#343=EDGE_LOOP('',(#336,#338,#340,#342));
#344=FACE_OUTER_BOUND('',#343,.F.);
#346=CARTESIAN_POINT('',(2.4E0,1.61E0,7.5E-1));
#347=DIRECTION('',(0.E0,0.E0,1.E0));
#348=DIRECTION('',(-1.E0,0.E0,0.E0));
#349=AXIS2_PLACEMENT_3D('',#346,#347,#348);
#350=PLANE('',#349);
#351=ORIENTED_EDGE('',*,*,#320,.F.);
#353=ORIENTED_EDGE('',*,*,#352,.T.);
#355=ORIENTED_EDGE('',*,*,#354,.F.);
#357=ORIENTED_EDGE('',*,*,#356,.T.);
#359=ORIENTED_EDGE('',*,*,#358,.T.);
#360=ORIENTED_EDGE('',*,*,#337,.F.);
#361=EDGE_LOOP('',(#351,#353,#355,#357,#359,#360));
#362=FACE_OUTER_BOUND('',#361,.F.);
#364=CARTESIAN_POINT('',(2.35E0,0.E0,1.65E0));
#365=DIRECTION('',(1.E0,0.E0,0.E0));
#366=DIRECTION('',(0.E0,0.E0,-1.E0));
#367=AXIS2_PLACEMENT_3D('',#364,#365,#366);
#368=PLANE('',#367);
#370=ORIENTED_EDGE('',*,*,#369,.T.);
#371=ORIENTED_EDGE('',*,*,#352,.F.);
#372=ORIENTED_EDGE('',*,*,#318,.F.);
#374=ORIENTED_EDGE('',*,*,#373,.T.);
#376=ORIENTED_EDGE('',*,*,#375,.T.);
#378=ORIENTED_EDGE('',*,*,#377,.F.);
#379=ORIENTED_EDGE('',*,*,#302,.F.);
#381=ORIENTED_EDGE('',*,*,#380,.T.);
#382=EDGE_LOOP('',(#370,#371,#372,#374,#376,#378,#379,#381));
#383=FACE_OUTER_BOUND('',#382,.F.);
#385=CARTESIAN_POINT('',(0.E0,1.61E0,0.E0));
#386=DIRECTION('',(0.E0,-1.E0,0.E0));
#387=DIRECTION('',(1.E0,0.E0,0.E0));
#388=AXIS2_PLACEMENT_3D('',#385,#386,#387);
#389=PLANE('',#388);
#391=ORIENTED_EDGE('',*,*,#390,.T.);
#393=ORIENTED_EDGE('',*,*,#392,.T.);
#395=ORIENTED_EDGE('',*,*,#394,.T.);
#397=ORIENTED_EDGE('',*,*,#396,.T.);
#398=EDGE_LOOP('',(#391,#393,#395,#397));
#399=FACE_OUTER_BOUND('',#398,.F.);
#401=CARTESIAN_POINT('',(0.E0,1.61E0,0.E0));
#402=DIRECTION('',(0.E0,-1.E0,0.E0));
#403=DIRECTION('',(1.E0,0.E0,0.E0));
#404=AXIS2_PLACEMENT_3D('',#401,#402,#403);
#405=PLANE('',#404);
#406=ORIENTED_EDGE('',*,*,#369,.F.);
#408=ORIENTED_EDGE('',*,*,#407,.T.);
#410=ORIENTED_EDGE('',*,*,#409,.T.);
#411=ORIENTED_EDGE('',*,*,#354,.T.);
#412=EDGE_LOOP('',(#406,#408,#410,#411));
#413=FACE_OUTER_BOUND('',#412,.F.);
#415=CARTESIAN_POINT('',(-2.35E0,0.E0,-1.65E0));
#416=DIRECTION('',(-1.E0,0.E0,0.E0));
#417=DIRECTION('',(0.E0,0.E0,1.E0));
#418=AXIS2_PLACEMENT_3D('',#415,#416,#417);
#419=PLANE('',#418);
#420=ORIENTED_EDGE('',*,*,#390,.F.);
#422=ORIENTED_EDGE('',*,*,#421,.F.);
#423=ORIENTED_EDGE('',*,*,#306,.F.);
#425=ORIENTED_EDGE('',*,*,#424,.T.);
#427=ORIENTED_EDGE('',*,*,#426,.T.);
#429=ORIENTED_EDGE('',*,*,#428,.F.);
#430=ORIENTED_EDGE('',*,*,#314,.F.);
#432=ORIENTED_EDGE('',*,*,#431,.T.);
#433=EDGE_LOOP('',(#420,#422,#423,#425,#427,#429,#430,#432));
#434=FACE_OUTER_BOUND('',#433,.F.);
#436=CARTESIAN_POINT('',(-2.4E0,1.61E0,-7.5E-1));
#437=DIRECTION('',(0.E0,0.E0,-1.E0));
#438=DIRECTION('',(1.E0,0.E0,0.E0));
#439=AXIS2_PLACEMENT_3D('',#436,#437,#438);
#440=PLANE('',#439);
#441=ORIENTED_EDGE('',*,*,#308,.F.);
#442=ORIENTED_EDGE('',*,*,#421,.T.);
#443=ORIENTED_EDGE('',*,*,#396,.F.);
#445=ORIENTED_EDGE('',*,*,#444,.T.);
#447=ORIENTED_EDGE('',*,*,#446,.T.);
#449=ORIENTED_EDGE('',*,*,#448,.F.);
#450=EDGE_LOOP('',(#441,#442,#443,#445,#447,#449));
#451=FACE_OUTER_BOUND('',#450,.F.);
#453=CARTESIAN_POINT('',(-2.4E0,1.61E0,7.5E-1));
#454=DIRECTION('',(-1.E0,0.E0,0.E0));
#455=DIRECTION('',(0.E0,0.E0,-1.E0));
#456=AXIS2_PLACEMENT_3D('',#453,#454,#455);
#457=PLANE('',#456);
#458=ORIENTED_EDGE('',*,*,#394,.F.);
#460=ORIENTED_EDGE('',*,*,#459,.T.);
#462=ORIENTED_EDGE('',*,*,#461,.T.);
#463=ORIENTED_EDGE('',*,*,#444,.F.);
#464=EDGE_LOOP('',(#458,#460,#462,#463));
#465=FACE_OUTER_BOUND('',#464,.F.);
#467=CARTESIAN_POINT('',(-1.4E0,1.61E0,7.5E-1));
#468=DIRECTION('',(0.E0,0.E0,1.E0));
#469=DIRECTION('',(-1.E0,0.E0,0.E0));
#470=AXIS2_PLACEMENT_3D('',#467,#468,#469);
#471=PLANE('',#470);
#472=ORIENTED_EDGE('',*,*,#312,.T.);
#474=ORIENTED_EDGE('',*,*,#473,.T.);
#476=ORIENTED_EDGE('',*,*,#475,.T.);
#477=ORIENTED_EDGE('',*,*,#459,.F.);
#478=ORIENTED_EDGE('',*,*,#392,.F.);
#479=ORIENTED_EDGE('',*,*,#431,.F.);
#480=EDGE_LOOP('',(#472,#474,#476,#477,#478,#479));
#481=FACE_OUTER_BOUND('',#480,.F.);
#483=CARTESIAN_POINT('',(-1.4E0,1.61E0,-7.5E-1));
#484=DIRECTION('',(1.E0,0.E0,0.E0));
#485=DIRECTION('',(0.E0,0.E0,1.E0));
#486=AXIS2_PLACEMENT_3D('',#483,#484,#485);
#487=PLANE('',#486);
#488=ORIENTED_EDGE('',*,*,#310,.F.);
#489=ORIENTED_EDGE('',*,*,#448,.T.);
#491=ORIENTED_EDGE('',*,*,#490,.T.);
#492=ORIENTED_EDGE('',*,*,#473,.F.);
#493=EDGE_LOOP('',(#488,#489,#491,#492));
#494=FACE_OUTER_BOUND('',#493,.F.);
#496=CARTESIAN_POINT('',(0.E0,-1.5E-1,0.E0));
#497=DIRECTION('',(0.E0,-1.E0,0.E0));
#498=DIRECTION('',(1.E0,0.E0,0.E0));
#499=AXIS2_PLACEMENT_3D('',#496,#497,#498);
#500=PLANE('',#499);
#502=ORIENTED_EDGE('',*,*,#501,.F.);
#504=ORIENTED_EDGE('',*,*,#503,.F.);
#505=EDGE_LOOP('',(#502,#504));
#506=FACE_OUTER_BOUND('',#505,.F.);
#508=CARTESIAN_POINT('',(0.E0,-1.5E-1,0.E0));
#509=DIRECTION('',(0.E0,-1.E0,0.E0));
#510=DIRECTION('',(1.E0,0.E0,0.E0));
#511=AXIS2_PLACEMENT_3D('',#508,#509,#510);
#512=PLANE('',#511);
#513=ORIENTED_EDGE('',*,*,#339,.F.);
#514=ORIENTED_EDGE('',*,*,#358,.F.);
#516=ORIENTED_EDGE('',*,*,#515,.F.);
#518=ORIENTED_EDGE('',*,*,#517,.F.);
#519=EDGE_LOOP('',(#513,#514,#516,#518));
#520=FACE_OUTER_BOUND('',#519,.F.);
#522=CARTESIAN_POINT('',(0.E0,-1.5E-1,0.E0));
#523=DIRECTION('',(0.E0,-1.E0,0.E0));
#524=DIRECTION('',(1.E0,0.E0,0.E0));
#525=AXIS2_PLACEMENT_3D('',#522,#523,#524);
#526=PLANE('',#525);
#527=ORIENTED_EDGE('',*,*,#475,.F.);
#528=ORIENTED_EDGE('',*,*,#490,.F.);
#529=ORIENTED_EDGE('',*,*,#446,.F.);
#530=ORIENTED_EDGE('',*,*,#461,.F.);
#531=EDGE_LOOP('',(#527,#528,#529,#530));
#532=FACE_OUTER_BOUND('',#531,.F.);
#534=CARTESIAN_POINT('',(0.E0,1.61E0,0.E0));
#535=DIRECTION('',(0.E0,-1.E0,0.E0));
#536=DIRECTION('',(1.E0,0.E0,0.E0));
#537=AXIS2_PLACEMENT_3D('',#534,#535,#536);
#538=CYLINDRICAL_SURFACE('',#537,1.25E0);
#539=ORIENTED_EDGE('',*,*,#324,.F.);
#541=ORIENTED_EDGE('',*,*,#540,.T.);
#542=ORIENTED_EDGE('',*,*,#501,.T.);
#544=ORIENTED_EDGE('',*,*,#543,.F.);
#545=EDGE_LOOP('',(#539,#541,#542,#544));
#546=FACE_OUTER_BOUND('',#545,.F.);
#548=CARTESIAN_POINT('',(0.E0,1.61E0,0.E0));
#549=DIRECTION('',(0.E0,-1.E0,0.E0));
#550=DIRECTION('',(1.E0,0.E0,0.E0));
#551=AXIS2_PLACEMENT_3D('',#548,#549,#550);
#552=CYLINDRICAL_SURFACE('',#551,1.25E0);
#553=ORIENTED_EDGE('',*,*,#326,.F.);
#554=ORIENTED_EDGE('',*,*,#543,.T.);
#555=ORIENTED_EDGE('',*,*,#503,.T.);
#556=ORIENTED_EDGE('',*,*,#540,.F.);
#557=EDGE_LOOP('',(#553,#554,#555,#556));
#558=FACE_OUTER_BOUND('',#557,.F.);
#560=CARTESIAN_POINT('',(2.4E0,1.61E0,-7.5E-1));
#561=DIRECTION('',(1.E0,0.E0,0.E0));
#562=DIRECTION('',(0.E0,0.E0,1.E0));
#563=AXIS2_PLACEMENT_3D('',#560,#561,#562);
#564=PLANE('',#563);
#565=ORIENTED_EDGE('',*,*,#409,.F.);
#567=ORIENTED_EDGE('',*,*,#566,.T.);
#568=ORIENTED_EDGE('',*,*,#515,.T.);
#569=ORIENTED_EDGE('',*,*,#356,.F.);
#570=EDGE_LOOP('',(#565,#567,#568,#569));
#571=FACE_OUTER_BOUND('',#570,.F.);
#573=CARTESIAN_POINT('',(1.4E0,1.61E0,-7.5E-1));
#574=DIRECTION('',(0.E0,0.E0,-1.E0));
#575=DIRECTION('',(1.E0,0.E0,0.E0));
#576=AXIS2_PLACEMENT_3D('',#573,#574,#575);
#577=PLANE('',#576);
#578=ORIENTED_EDGE('',*,*,#300,.T.);
#579=ORIENTED_EDGE('',*,*,#341,.T.);
#580=ORIENTED_EDGE('',*,*,#517,.T.);
#581=ORIENTED_EDGE('',*,*,#566,.F.);
#582=ORIENTED_EDGE('',*,*,#407,.F.);
#583=ORIENTED_EDGE('',*,*,#380,.F.);
#584=EDGE_LOOP('',(#578,#579,#580,#581,#582,#583));
#585=FACE_OUTER_BOUND('',#584,.F.);
#587=CARTESIAN_POINT('',(2.35E0,0.E0,-1.65E0));
#588=DIRECTION('',(0.E0,0.E0,-1.E0));
#589=DIRECTION('',(-1.E0,0.E0,0.E0));
#590=AXIS2_PLACEMENT_3D('',#587,#588,#589);
#591=PLANE('',#590);
#592=ORIENTED_EDGE('',*,*,#304,.F.);
#593=ORIENTED_EDGE('',*,*,#377,.T.);
#595=ORIENTED_EDGE('',*,*,#594,.T.);
#596=ORIENTED_EDGE('',*,*,#424,.F.);
#597=EDGE_LOOP('',(#592,#593,#595,#596));
#598=FACE_OUTER_BOUND('',#597,.F.);
#600=CARTESIAN_POINT('',(0.E0,2.65E0,0.E0));
#601=DIRECTION('',(0.E0,1.E0,0.E0));
#602=DIRECTION('',(1.E0,0.E0,0.E0));
#603=AXIS2_PLACEMENT_3D('',#600,#601,#602);
#604=PLANE('',#603);
#605=ORIENTED_EDGE('',*,*,#426,.F.);
#606=ORIENTED_EDGE('',*,*,#594,.F.);
#607=ORIENTED_EDGE('',*,*,#375,.F.);
#609=ORIENTED_EDGE('',*,*,#608,.F.);
#610=EDGE_LOOP('',(#605,#606,#607,#609));
#611=FACE_OUTER_BOUND('',#610,.F.);
#613=CARTESIAN_POINT('',(-2.35E0,0.E0,1.65E0));
#614=DIRECTION('',(0.E0,0.E0,1.E0));
#615=DIRECTION('',(1.E0,0.E0,0.E0));
#616=AXIS2_PLACEMENT_3D('',#613,#614,#615);
#617=PLANE('',#616);
#618=ORIENTED_EDGE('',*,*,#316,.F.);
#619=ORIENTED_EDGE('',*,*,#428,.T.);
#620=ORIENTED_EDGE('',*,*,#608,.T.);
#621=ORIENTED_EDGE('',*,*,#373,.F.);
#622=EDGE_LOOP('',(#618,#619,#620,#621));
#623=FACE_OUTER_BOUND('',#622,.F.);
#625=CLOSED_SHELL('',(#330,#345,#363,#384,#400,#414,#435,#452,#466,#482,#495,
#507,#521,#533,#547,#559,#572,#586,#599,#612,#624));
#626=MANIFOLD_SOLID_BREP('',#625);
#628=DIMENSIONAL_EXPONENTS(0.E0,0.E0,0.E0,0.E0,0.E0,0.E0,0.E0);
#630=PLANE_ANGLE_MEASURE_WITH_UNIT(PLANE_ANGLE_MEASURE(1.745329251994E-2),#629);
#631=(CONVERSION_BASED_UNIT('DEGREE',#630)NAMED_UNIT(*)PLANE_ANGLE_UNIT());
#633=UNCERTAINTY_MEASURE_WITH_UNIT(LENGTH_MEASURE(2.692797055819E-4),#627,
'closure',
'Maximum model space distance between geometric entities at asserted connectivities');
#636=APPLICATION_CONTEXT(
'CONFIGURATION CONTROLLED 3D DESIGNS OF MECHANICAL PARTS AND ASSEMBLIES');
#637=APPLICATION_PROTOCOL_DEFINITION('international standard',
'config_control_design',1994,#636);
#638=DESIGN_CONTEXT('',#636,'design');
#639=MECHANICAL_CONTEXT('',#636,'mechanical');
#640=PRODUCT('PWR1913','PWR1913','NOT SPECIFIED',(#639));
#641=PRODUCT_DEFINITION_FORMATION_WITH_SPECIFIED_SOURCE('1','LAST_VERSION',#640,
.MADE.);
#645=PRODUCT_CATEGORY('part','');
#646=PRODUCT_RELATED_PRODUCT_CATEGORY('detail','',(#640));
#647=PRODUCT_CATEGORY_RELATIONSHIP('','',#645,#646);
#648=SECURITY_CLASSIFICATION_LEVEL('unclassified');
#649=SECURITY_CLASSIFICATION('','',#648);
#650=CC_DESIGN_SECURITY_CLASSIFICATION(#649,(#641));
#651=APPROVAL_STATUS('approved');
#652=APPROVAL(#651,'');
#653=CC_DESIGN_APPROVAL(#652,(#649,#641,#642));
#654=CALENDAR_DATE(112,17,8);
#655=COORDINATED_UNIVERSAL_TIME_OFFSET(7,0,.BEHIND.);
#656=LOCAL_TIME(15,38,3.4E1,#655);
#657=DATE_AND_TIME(#654,#656);
#658=APPROVAL_DATE_TIME(#657,#652);
#659=DATE_TIME_ROLE('creation_date');
#660=CC_DESIGN_DATE_AND_TIME_ASSIGNMENT(#657,#659,(#642));
#661=DATE_TIME_ROLE('classification_date');
#662=CC_DESIGN_DATE_AND_TIME_ASSIGNMENT(#657,#661,(#649));
#663=PERSON('UNSPECIFIED','UNSPECIFIED',$,$,$,$);
#664=ORGANIZATION('UNSPECIFIED','UNSPECIFIED','UNSPECIFIED');
#665=PERSON_AND_ORGANIZATION(#663,#664);
#666=APPROVAL_ROLE('approver');
#667=APPROVAL_PERSON_ORGANIZATION(#665,#652,#666);
#668=PERSON_AND_ORGANIZATION_ROLE('creator');
#669=CC_DESIGN_PERSON_AND_ORGANIZATION_ASSIGNMENT(#665,#668,(#641,#642));
#670=PERSON_AND_ORGANIZATION_ROLE('design_supplier');
#671=CC_DESIGN_PERSON_AND_ORGANIZATION_ASSIGNMENT(#665,#670,(#641));
#672=PERSON_AND_ORGANIZATION_ROLE('classification_officer');
#673=CC_DESIGN_PERSON_AND_ORGANIZATION_ASSIGNMENT(#665,#672,(#649));
#674=PERSON_AND_ORGANIZATION_ROLE('design_owner');
#675=CC_DESIGN_PERSON_AND_ORGANIZATION_ASSIGNMENT(#665,#674,(#640));
#53=CIRCLE('',#52,1.25E0);
#58=CIRCLE('',#57,1.25E0);
#143=CIRCLE('',#142,1.25E0);
#148=CIRCLE('',#147,1.25E0);
#298=EDGE_CURVE('',#263,#264,#4,.T.);
#300=EDGE_CURVE('',#266,#264,#8,.T.);
#302=EDGE_CURVE('',#266,#227,#12,.T.);
#304=EDGE_CURVE('',#227,#228,#16,.T.);
#306=EDGE_CURVE('',#228,#275,#20,.T.);
#308=EDGE_CURVE('',#275,#276,#24,.T.);
#310=EDGE_CURVE('',#276,#272,#28,.T.);
#312=EDGE_CURVE('',#271,#272,#32,.T.);
#314=EDGE_CURVE('',#271,#223,#36,.T.);
#316=EDGE_CURVE('',#223,#224,#40,.T.);
#318=EDGE_CURVE('',#224,#268,#44,.T.);
#320=EDGE_CURVE('',#268,#263,#48,.T.);
#324=EDGE_CURVE('',#291,#292,#53,.T.);
#326=EDGE_CURVE('',#292,#291,#58,.T.);
#330=ADVANCED_FACE('',(#323,#329),#297,.F.);
#337=EDGE_CURVE('',#263,#247,#62,.T.);
#339=EDGE_CURVE('',#247,#248,#152,.T.);
#341=EDGE_CURVE('',#264,#248,#196,.T.);
#345=ADVANCED_FACE('',(#344),#335,.T.);
#352=EDGE_CURVE('',#268,#284,#74,.T.);
#354=EDGE_CURVE('',#240,#284,#106,.T.);
#356=EDGE_CURVE('',#240,#252,#66,.T.);
#358=EDGE_CURVE('',#252,#247,#156,.T.);
#363=ADVANCED_FACE('',(#362),#350,.T.);
#369=EDGE_CURVE('',#283,#284,#70,.T.);
#373=EDGE_CURVE('',#224,#234,#78,.T.);
#375=EDGE_CURVE('',#234,#236,#212,.T.);
#377=EDGE_CURVE('',#227,#236,#200,.T.);
#380=EDGE_CURVE('',#266,#283,#82,.T.);
#384=ADVANCED_FACE('',(#383),#368,.T.);
#390=EDGE_CURVE('',#279,#280,#110,.T.);
#392=EDGE_CURVE('',#280,#243,#86,.T.);
#394=EDGE_CURVE('',#243,#244,#90,.T.);
#396=EDGE_CURVE('',#244,#279,#94,.T.);
#400=ADVANCED_FACE('',(#399),#389,.F.);
#407=EDGE_CURVE('',#283,#239,#98,.T.);
#409=EDGE_CURVE('',#239,#240,#102,.T.);
#414=ADVANCED_FACE('',(#413),#405,.F.);
#421=EDGE_CURVE('',#275,#279,#114,.T.);
#424=EDGE_CURVE('',#228,#231,#118,.T.);
#426=EDGE_CURVE('',#231,#232,#204,.T.);
#428=EDGE_CURVE('',#223,#232,#220,.T.);
#431=EDGE_CURVE('',#271,#280,#122,.T.);
#435=ADVANCED_FACE('',(#434),#419,.T.);
#444=EDGE_CURVE('',#244,#258,#126,.T.);
#446=EDGE_CURVE('',#258,#260,#176,.T.);
#448=EDGE_CURVE('',#276,#260,#138,.T.);
#452=ADVANCED_FACE('',(#451),#440,.T.);
#459=EDGE_CURVE('',#243,#256,#130,.T.);
#461=EDGE_CURVE('',#256,#258,#180,.T.);
#466=ADVANCED_FACE('',(#465),#457,.T.);
#473=EDGE_CURVE('',#272,#255,#134,.T.);
#475=EDGE_CURVE('',#255,#256,#168,.T.);
#482=ADVANCED_FACE('',(#481),#471,.T.);
#490=EDGE_CURVE('',#260,#255,#172,.T.);
#495=ADVANCED_FACE('',(#494),#487,.T.);
#501=EDGE_CURVE('',#287,#288,#143,.T.);
#503=EDGE_CURVE('',#288,#287,#148,.T.);
#507=ADVANCED_FACE('',(#506),#500,.T.);
#515=EDGE_CURVE('',#250,#252,#160,.T.);
#517=EDGE_CURVE('',#248,#250,#164,.T.);
#521=ADVANCED_FACE('',(#520),#512,.T.);
#533=ADVANCED_FACE('',(#532),#526,.T.);
#540=EDGE_CURVE('',#291,#287,#184,.T.);
#543=EDGE_CURVE('',#292,#288,#188,.T.);
#547=ADVANCED_FACE('',(#546),#538,.T.);
#559=ADVANCED_FACE('',(#558),#552,.T.);
#566=EDGE_CURVE('',#239,#250,#192,.T.);
#572=ADVANCED_FACE('',(#571),#564,.T.);
#586=ADVANCED_FACE('',(#585),#577,.T.);
#594=EDGE_CURVE('',#236,#231,#208,.T.);
#599=ADVANCED_FACE('',(#598),#591,.T.);
#608=EDGE_CURVE('',#232,#234,#216,.T.);
#612=ADVANCED_FACE('',(#611),#604,.T.);
#624=ADVANCED_FACE('',(#623),#617,.T.);
#627=(LENGTH_UNIT()NAMED_UNIT(*)SI_UNIT(.MILLI.,.METRE.));
#629=(NAMED_UNIT(*)PLANE_ANGLE_UNIT()SI_UNIT($,.RADIAN.));
#632=(NAMED_UNIT(*)SI_UNIT($,.STERADIAN.)SOLID_ANGLE_UNIT());
#634=(GEOMETRIC_REPRESENTATION_CONTEXT(3)GLOBAL_UNCERTAINTY_ASSIGNED_CONTEXT((
#633))GLOBAL_UNIT_ASSIGNED_CONTEXT((#627,#631,#632))REPRESENTATION_CONTEXT
('ID1','3'));
#635=ADVANCED_BREP_SHAPE_REPRESENTATION('',(#626),#634);
#642=PRODUCT_DEFINITION('design','',#641,#638);
#643=PRODUCT_DEFINITION_SHAPE('','SHAPE FOR PWR1913.',#642);
#644=SHAPE_DEFINITION_REPRESENTATION(#643,#635);
ENDSEC;
END-ISO-10303-21;
