ISO-10303-21;
HEADER;
FILE_DESCRIPTION((''),'2;1');
FILE_NAME('PWR1913','2012-08-17T',('ryans'),('Bourns, Inc.'),
'PRO/ENGINEER BY PARAMETRIC TECHNOLOGY CORPORATION, 2010100',
'PRO/ENGINEER BY PARAMETRIC TECHNOLOGY CORPORATION, 2010100','');
FILE_SCHEMA(('CONFIG_CONTROL_DESIGN'));
ENDSEC;
DATA;
#1=DIRECTION('',(0.E0,0.E0,-1.E0));
#2=VECTOR('',#1,3.E0);
#3=CARTESIAN_POINT('',(4.55E0,0.E0,1.5E0));
#4=LINE('',#3,#2);
#5=DIRECTION('',(-1.E0,0.E0,0.E0));
#6=VECTOR('',#5,3.35E0);
#7=CARTESIAN_POINT('',(7.9E0,0.E0,-1.5E0));
#8=LINE('',#7,#6);
#9=DIRECTION('',(0.E0,0.E0,-1.E0));
#10=VECTOR('',#9,1.95E0);
#11=CARTESIAN_POINT('',(7.9E0,0.E0,-1.5E0));
#12=LINE('',#11,#10);
#13=DIRECTION('',(-1.E0,0.E0,0.E0));
#14=VECTOR('',#13,1.58E1);
#15=CARTESIAN_POINT('',(7.9E0,0.E0,-3.45E0));
#16=LINE('',#15,#14);
#17=DIRECTION('',(0.E0,0.E0,1.E0));
#18=VECTOR('',#17,1.95E0);
#19=CARTESIAN_POINT('',(-7.9E0,0.E0,-3.45E0));
#20=LINE('',#19,#18);
#21=DIRECTION('',(1.E0,0.E0,0.E0));
#22=VECTOR('',#21,3.35E0);
#23=CARTESIAN_POINT('',(-7.9E0,0.E0,-1.5E0));
#24=LINE('',#23,#22);
#25=DIRECTION('',(0.E0,0.E0,1.E0));
#26=VECTOR('',#25,3.E0);
#27=CARTESIAN_POINT('',(-4.55E0,0.E0,-1.5E0));
#28=LINE('',#27,#26);
#29=DIRECTION('',(1.E0,0.E0,0.E0));
#30=VECTOR('',#29,3.35E0);
#31=CARTESIAN_POINT('',(-7.9E0,0.E0,1.5E0));
#32=LINE('',#31,#30);
#33=DIRECTION('',(0.E0,0.E0,1.E0));
#34=VECTOR('',#33,1.95E0);
#35=CARTESIAN_POINT('',(-7.9E0,0.E0,1.5E0));
#36=LINE('',#35,#34);
#37=DIRECTION('',(1.E0,0.E0,0.E0));
#38=VECTOR('',#37,1.58E1);
#39=CARTESIAN_POINT('',(-7.9E0,0.E0,3.45E0));
#40=LINE('',#39,#38);
#41=DIRECTION('',(0.E0,0.E0,-1.E0));
#42=VECTOR('',#41,1.95E0);
#43=CARTESIAN_POINT('',(7.9E0,0.E0,3.45E0));
#44=LINE('',#43,#42);
#45=DIRECTION('',(-1.E0,0.E0,0.E0));
#46=VECTOR('',#45,3.35E0);
#47=CARTESIAN_POINT('',(7.9E0,0.E0,1.5E0));
#48=LINE('',#47,#46);
#49=CARTESIAN_POINT('',(0.E0,0.E0,0.E0));
#50=DIRECTION('',(0.E0,-1.E0,0.E0));
#51=DIRECTION('',(1.E0,0.E0,0.E0));
#52=AXIS2_PLACEMENT_3D('',#49,#50,#51);
#54=CARTESIAN_POINT('',(0.E0,0.E0,0.E0));
#55=DIRECTION('',(0.E0,-1.E0,0.E0));
#56=DIRECTION('',(-1.E0,0.E0,0.E0));
#57=AXIS2_PLACEMENT_3D('',#54,#55,#56);
#59=DIRECTION('',(0.E0,-1.E0,0.E0));
#60=VECTOR('',#59,1.5E-1);
#61=CARTESIAN_POINT('',(4.55E0,0.E0,1.5E0));
#62=LINE('',#61,#60);
#63=CARTESIAN_POINT('',(7.85E0,-5.E-2,1.5E0));
#64=DIRECTION('',(0.E0,0.E0,1.E0));
#65=DIRECTION('',(0.E0,-1.E0,0.E0));
#66=AXIS2_PLACEMENT_3D('',#63,#64,#65);
#68=CARTESIAN_POINT('',(7.85E0,1.523397459622E0,1.5E0));
#69=DIRECTION('',(0.E0,0.E0,1.E0));
#70=DIRECTION('',(1.E0,-5.373479439186E-13,0.E0));
#71=AXIS2_PLACEMENT_3D('',#68,#69,#70);
#73=DIRECTION('',(0.E0,-1.E0,0.E0));
#74=VECTOR('',#73,1.573397459622E0);
#75=CARTESIAN_POINT('',(7.95E0,1.523397459622E0,1.5E0));
#76=LINE('',#75,#74);
#77=DIRECTION('',(0.E0,0.E0,1.E0));
#78=VECTOR('',#77,3.E0);
#79=CARTESIAN_POINT('',(7.95E0,-5.E-2,-1.5E0));
#80=LINE('',#79,#78);
#81=DIRECTION('',(0.E0,0.E0,-1.E0));
#82=VECTOR('',#81,3.E0);
#83=CARTESIAN_POINT('',(7.95E0,1.523397459622E0,1.5E0));
#84=LINE('',#83,#82);
#85=DIRECTION('',(0.E0,-1.E0,0.E0));
#86=VECTOR('',#85,1.573397459622E0);
#87=CARTESIAN_POINT('',(7.95E0,1.523397459622E0,-1.5E0));
#88=LINE('',#87,#86);
#89=CARTESIAN_POINT('',(7.85E0,-5.E-2,-1.5E0));
#90=DIRECTION('',(0.E0,0.E0,-1.E0));
#91=DIRECTION('',(1.E0,0.E0,0.E0));
#92=AXIS2_PLACEMENT_3D('',#89,#90,#91);
#94=CARTESIAN_POINT('',(7.85E0,1.523397459622E0,-1.5E0));
#95=DIRECTION('',(0.E0,0.E0,-1.E0));
#96=DIRECTION('',(5.E-1,8.660254037844E-1,0.E0));
#97=AXIS2_PLACEMENT_3D('',#94,#95,#96);
#99=DIRECTION('',(0.E0,-1.E0,0.E0));
#100=VECTOR('',#99,1.5E-1);
#101=CARTESIAN_POINT('',(4.55E0,0.E0,-1.5E0));
#102=LINE('',#101,#100);
#103=DIRECTION('',(0.E0,0.E0,-1.E0));
#104=VECTOR('',#103,3.E0);
#105=CARTESIAN_POINT('',(7.9E0,1.61E0,1.5E0));
#106=LINE('',#105,#104);
#107=DIRECTION('',(0.E0,1.E0,0.E0));
#108=VECTOR('',#107,1.61E0);
#109=CARTESIAN_POINT('',(7.9E0,0.E0,1.5E0));
#110=LINE('',#109,#108);
#111=DIRECTION('',(0.E0,1.E0,0.E0));
#112=VECTOR('',#111,6.25E0);
#113=CARTESIAN_POINT('',(7.9E0,0.E0,3.45E0));
#114=LINE('',#113,#112);
#115=DIRECTION('',(0.E0,1.E0,0.E0));
#116=VECTOR('',#115,1.61E0);
#117=CARTESIAN_POINT('',(7.9E0,0.E0,-1.5E0));
#118=LINE('',#117,#116);
#119=DIRECTION('',(0.E0,1.E0,0.E0));
#120=VECTOR('',#119,6.25E0);
#121=CARTESIAN_POINT('',(-7.9E0,0.E0,3.45E0));
#122=LINE('',#121,#120);
#123=DIRECTION('',(0.E0,0.E0,1.E0));
#124=VECTOR('',#123,3.E0);
#125=CARTESIAN_POINT('',(-7.9E0,1.61E0,-1.5E0));
#126=LINE('',#125,#124);
#127=DIRECTION('',(0.E0,1.E0,0.E0));
#128=VECTOR('',#127,1.61E0);
#129=CARTESIAN_POINT('',(-7.9E0,0.E0,-1.5E0));
#130=LINE('',#129,#128);
#131=DIRECTION('',(0.E0,1.E0,0.E0));
#132=VECTOR('',#131,6.25E0);
#133=CARTESIAN_POINT('',(-7.9E0,0.E0,-3.45E0));
#134=LINE('',#133,#132);
#135=DIRECTION('',(0.E0,1.E0,0.E0));
#136=VECTOR('',#135,1.61E0);
#137=CARTESIAN_POINT('',(-7.9E0,0.E0,1.5E0));
#138=LINE('',#137,#136);
#139=CARTESIAN_POINT('',(-7.85E0,-5.E-2,1.5E0));
#140=DIRECTION('',(0.E0,0.E0,1.E0));
#141=DIRECTION('',(-1.E0,0.E0,0.E0));
#142=AXIS2_PLACEMENT_3D('',#139,#140,#141);
#144=CARTESIAN_POINT('',(-7.85E0,1.523397459622E0,1.5E0));
#145=DIRECTION('',(0.E0,0.E0,1.E0));
#146=DIRECTION('',(-4.999999999999E-1,8.660254037845E-1,0.E0));
#147=AXIS2_PLACEMENT_3D('',#144,#145,#146);
#149=DIRECTION('',(0.E0,-1.E0,0.E0));
#150=VECTOR('',#149,1.5E-1);
#151=CARTESIAN_POINT('',(-4.55E0,0.E0,1.5E0));
#152=LINE('',#151,#150);
#153=CARTESIAN_POINT('',(-7.85E0,-5.E-2,-1.5E0));
#154=DIRECTION('',(0.E0,0.E0,-1.E0));
#155=DIRECTION('',(0.E0,-1.E0,0.E0));
#156=AXIS2_PLACEMENT_3D('',#153,#154,#155);
#158=CARTESIAN_POINT('',(-7.85E0,1.523397459622E0,-1.5E0));
#159=DIRECTION('',(0.E0,0.E0,-1.E0));
#160=DIRECTION('',(-1.E0,2.886579864025E-14,0.E0));
#161=AXIS2_PLACEMENT_3D('',#158,#159,#160);
#163=DIRECTION('',(0.E0,-1.E0,0.E0));
#164=VECTOR('',#163,1.573397459622E0);
#165=CARTESIAN_POINT('',(-7.95E0,1.523397459622E0,-1.5E0));
#166=LINE('',#165,#164);
#167=CARTESIAN_POINT('',(0.E0,-1.5E-1,0.E0));
#168=DIRECTION('',(0.E0,-1.E0,0.E0));
#169=DIRECTION('',(1.E0,0.E0,0.E0));
#170=AXIS2_PLACEMENT_3D('',#167,#168,#169);
#172=CARTESIAN_POINT('',(0.E0,-1.5E-1,0.E0));
#173=DIRECTION('',(0.E0,-1.E0,0.E0));
#174=DIRECTION('',(-1.E0,0.E0,0.E0));
#175=AXIS2_PLACEMENT_3D('',#172,#173,#174);
#177=DIRECTION('',(0.E0,0.E0,1.E0));
#178=VECTOR('',#177,3.E0);
#179=CARTESIAN_POINT('',(7.85E0,-1.5E-1,-1.5E0));
#180=LINE('',#179,#178);
#181=DIRECTION('',(1.E0,0.E0,0.E0));
#182=VECTOR('',#181,3.3E0);
#183=CARTESIAN_POINT('',(4.55E0,-1.5E-1,-1.5E0));
#184=LINE('',#183,#182);
#185=DIRECTION('',(0.E0,0.E0,-1.E0));
#186=VECTOR('',#185,3.E0);
#187=CARTESIAN_POINT('',(4.55E0,-1.5E-1,1.5E0));
#188=LINE('',#187,#186);
#189=DIRECTION('',(-1.E0,0.E0,0.E0));
#190=VECTOR('',#189,3.3E0);
#191=CARTESIAN_POINT('',(7.85E0,-1.5E-1,1.5E0));
#192=LINE('',#191,#190);
#193=DIRECTION('',(0.E0,0.E0,-1.E0));
#194=VECTOR('',#193,3.E0);
#195=CARTESIAN_POINT('',(-7.85E0,-1.5E-1,1.5E0));
#196=LINE('',#195,#194);
#197=DIRECTION('',(-1.E0,0.E0,0.E0));
#198=VECTOR('',#197,3.3E0);
#199=CARTESIAN_POINT('',(-4.55E0,-1.5E-1,1.5E0));
#200=LINE('',#199,#198);
#201=DIRECTION('',(0.E0,0.E0,1.E0));
#202=VECTOR('',#201,3.E0);
#203=CARTESIAN_POINT('',(-4.55E0,-1.5E-1,-1.5E0));
#204=LINE('',#203,#202);
#205=DIRECTION('',(1.E0,0.E0,0.E0));
#206=VECTOR('',#205,3.3E0);
#207=CARTESIAN_POINT('',(-7.85E0,-1.5E-1,-1.5E0));
#208=LINE('',#207,#206);
#209=DIRECTION('',(0.E0,-1.E0,0.E0));
#210=VECTOR('',#209,1.5E-1);
#211=CARTESIAN_POINT('',(1.4E0,0.E0,0.E0));
#212=LINE('',#211,#210);
#213=DIRECTION('',(0.E0,-1.E0,0.E0));
#214=VECTOR('',#213,1.5E-1);
#215=CARTESIAN_POINT('',(-1.4E0,0.E0,0.E0));
#216=LINE('',#215,#214);
#217=DIRECTION('',(0.E0,-1.E0,0.E0));
#218=VECTOR('',#217,1.5E-1);
#219=CARTESIAN_POINT('',(-4.55E0,0.E0,-1.5E0));
#220=LINE('',#219,#218);
#221=DIRECTION('',(0.E0,0.E0,-1.E0));
#222=VECTOR('',#221,3.E0);
#223=CARTESIAN_POINT('',(-7.95E0,-5.E-2,1.5E0));
#224=LINE('',#223,#222);
#225=DIRECTION('',(0.E0,0.E0,1.E0));
#226=VECTOR('',#225,3.E0);
#227=CARTESIAN_POINT('',(-7.95E0,1.523397459622E0,-1.5E0));
#228=LINE('',#227,#226);
#229=DIRECTION('',(0.E0,-1.E0,0.E0));
#230=VECTOR('',#229,1.573397459622E0);
#231=CARTESIAN_POINT('',(-7.95E0,1.523397459622E0,1.5E0));
#232=LINE('',#231,#230);
#233=DIRECTION('',(0.E0,1.E0,0.E0));
#234=VECTOR('',#233,6.25E0);
#235=CARTESIAN_POINT('',(7.9E0,0.E0,-3.45E0));
#236=LINE('',#235,#234);
#237=DIRECTION('',(0.E0,0.E0,1.E0));
#238=VECTOR('',#237,6.9E0);
#239=CARTESIAN_POINT('',(-7.9E0,6.25E0,-3.45E0));
#240=LINE('',#239,#238);
#241=DIRECTION('',(-1.E0,0.E0,0.E0));
#242=VECTOR('',#241,1.58E1);
#243=CARTESIAN_POINT('',(7.9E0,6.25E0,-3.45E0));
#244=LINE('',#243,#242);
#245=DIRECTION('',(0.E0,0.E0,-1.E0));
#246=VECTOR('',#245,6.9E0);
#247=CARTESIAN_POINT('',(7.9E0,6.25E0,3.45E0));
#248=LINE('',#247,#246);
#249=DIRECTION('',(1.E0,0.E0,0.E0));
#250=VECTOR('',#249,1.58E1);
#251=CARTESIAN_POINT('',(-7.9E0,6.25E0,3.45E0));
#252=LINE('',#251,#250);
#253=CARTESIAN_POINT('',(-7.9E0,0.E0,3.45E0));
#254=CARTESIAN_POINT('',(7.9E0,0.E0,3.45E0));
#255=VERTEX_POINT('',#253);
#256=VERTEX_POINT('',#254);
#257=CARTESIAN_POINT('',(7.9E0,0.E0,-3.45E0));
#258=CARTESIAN_POINT('',(-7.9E0,0.E0,-3.45E0));
#259=VERTEX_POINT('',#257);
#260=VERTEX_POINT('',#258);
#261=CARTESIAN_POINT('',(-7.9E0,6.25E0,-3.45E0));
#262=CARTESIAN_POINT('',(-7.9E0,6.25E0,3.45E0));
#263=VERTEX_POINT('',#261);
#264=VERTEX_POINT('',#262);
#265=CARTESIAN_POINT('',(7.9E0,6.25E0,3.45E0));
#266=VERTEX_POINT('',#265);
#267=CARTESIAN_POINT('',(7.9E0,6.25E0,-3.45E0));
#268=VERTEX_POINT('',#267);
#269=CARTESIAN_POINT('',(4.55E0,-1.5E-1,1.5E0));
#270=CARTESIAN_POINT('',(4.55E0,-1.5E-1,-1.5E0));
#271=VERTEX_POINT('',#269);
#272=VERTEX_POINT('',#270);
#273=CARTESIAN_POINT('',(-4.55E0,-1.5E-1,-1.5E0));
#274=CARTESIAN_POINT('',(-4.55E0,-1.5E-1,1.5E0));
#275=VERTEX_POINT('',#273);
#276=VERTEX_POINT('',#274);
#277=CARTESIAN_POINT('',(4.55E0,0.E0,1.5E0));
#278=CARTESIAN_POINT('',(4.55E0,0.E0,-1.5E0));
#279=VERTEX_POINT('',#277);
#280=VERTEX_POINT('',#278);
#281=CARTESIAN_POINT('',(7.9E0,0.E0,-1.5E0));
#282=VERTEX_POINT('',#281);
#283=CARTESIAN_POINT('',(7.9E0,0.E0,1.5E0));
#284=VERTEX_POINT('',#283);
#285=CARTESIAN_POINT('',(-7.9E0,0.E0,1.5E0));
#286=CARTESIAN_POINT('',(-4.55E0,0.E0,1.5E0));
#287=VERTEX_POINT('',#285);
#288=VERTEX_POINT('',#286);
#289=CARTESIAN_POINT('',(-7.9E0,0.E0,-1.5E0));
#290=CARTESIAN_POINT('',(-4.55E0,0.E0,-1.5E0));
#291=VERTEX_POINT('',#289);
#292=VERTEX_POINT('',#290);
#293=CARTESIAN_POINT('',(1.4E0,-1.5E-1,0.E0));
#294=CARTESIAN_POINT('',(-1.4E0,-1.5E-1,0.E0));
#295=VERTEX_POINT('',#293);
#296=VERTEX_POINT('',#294);
#297=CARTESIAN_POINT('',(1.4E0,0.E0,0.E0));
#298=CARTESIAN_POINT('',(-1.4E0,0.E0,0.E0));
#299=VERTEX_POINT('',#297);
#300=VERTEX_POINT('',#298);
#301=CARTESIAN_POINT('',(7.85E0,-1.5E-1,1.5E0));
#302=CARTESIAN_POINT('',(7.95E0,-5.E-2,1.5E0));
#303=VERTEX_POINT('',#301);
#304=VERTEX_POINT('',#302);
#305=CARTESIAN_POINT('',(7.95E0,-5.E-2,-1.5E0));
#306=VERTEX_POINT('',#305);
#307=CARTESIAN_POINT('',(7.85E0,-1.5E-1,-1.5E0));
#308=VERTEX_POINT('',#307);
#309=CARTESIAN_POINT('',(7.9E0,1.61E0,-1.5E0));
#310=CARTESIAN_POINT('',(7.95E0,1.523397459622E0,-1.5E0));
#311=VERTEX_POINT('',#309);
#312=VERTEX_POINT('',#310);
#313=CARTESIAN_POINT('',(7.95E0,1.523397459622E0,1.5E0));
#314=VERTEX_POINT('',#313);
#315=CARTESIAN_POINT('',(7.9E0,1.61E0,1.5E0));
#316=VERTEX_POINT('',#315);
#317=CARTESIAN_POINT('',(-7.85E0,-1.5E-1,-1.5E0));
#318=CARTESIAN_POINT('',(-7.95E0,-5.E-2,-1.5E0));
#319=VERTEX_POINT('',#317);
#320=VERTEX_POINT('',#318);
#321=CARTESIAN_POINT('',(-7.95E0,-5.E-2,1.5E0));
#322=VERTEX_POINT('',#321);
#323=CARTESIAN_POINT('',(-7.85E0,-1.5E-1,1.5E0));
#324=VERTEX_POINT('',#323);
#325=CARTESIAN_POINT('',(-7.9E0,1.61E0,1.5E0));
#326=CARTESIAN_POINT('',(-7.95E0,1.523397459622E0,1.5E0));
#327=VERTEX_POINT('',#325);
#328=VERTEX_POINT('',#326);
#329=CARTESIAN_POINT('',(-7.95E0,1.523397459622E0,-1.5E0));
#330=VERTEX_POINT('',#329);
#331=CARTESIAN_POINT('',(-7.9E0,1.61E0,-1.5E0));
#332=VERTEX_POINT('',#331);
#333=CARTESIAN_POINT('',(0.E0,0.E0,0.E0));
#334=DIRECTION('',(0.E0,1.E0,0.E0));
#335=DIRECTION('',(1.E0,0.E0,0.E0));
#336=AXIS2_PLACEMENT_3D('',#333,#334,#335);
#337=PLANE('',#336);
#339=ORIENTED_EDGE('',*,*,#338,.T.);
#341=ORIENTED_EDGE('',*,*,#340,.F.);
#343=ORIENTED_EDGE('',*,*,#342,.T.);
#345=ORIENTED_EDGE('',*,*,#344,.T.);
#347=ORIENTED_EDGE('',*,*,#346,.T.);
#349=ORIENTED_EDGE('',*,*,#348,.T.);
#351=ORIENTED_EDGE('',*,*,#350,.T.);
#353=ORIENTED_EDGE('',*,*,#352,.F.);
#355=ORIENTED_EDGE('',*,*,#354,.T.);
#357=ORIENTED_EDGE('',*,*,#356,.T.);
#359=ORIENTED_EDGE('',*,*,#358,.T.);
#361=ORIENTED_EDGE('',*,*,#360,.T.);
#362=EDGE_LOOP('',(#339,#341,#343,#345,#347,#349,#351,#353,#355,#357,#359,
#361));
#363=FACE_OUTER_BOUND('',#362,.F.);
#365=ORIENTED_EDGE('',*,*,#364,.T.);
#367=ORIENTED_EDGE('',*,*,#366,.T.);
#368=EDGE_LOOP('',(#365,#367));
#369=FACE_BOUND('',#368,.F.);
#371=CARTESIAN_POINT('',(4.55E0,1.61E0,1.5E0));
#372=DIRECTION('',(-1.E0,0.E0,0.E0));
#373=DIRECTION('',(0.E0,0.E0,-1.E0));
#374=AXIS2_PLACEMENT_3D('',#371,#372,#373);
#375=PLANE('',#374);
#376=ORIENTED_EDGE('',*,*,#338,.F.);
#378=ORIENTED_EDGE('',*,*,#377,.T.);
#380=ORIENTED_EDGE('',*,*,#379,.T.);
#382=ORIENTED_EDGE('',*,*,#381,.F.);
#383=EDGE_LOOP('',(#376,#378,#380,#382));
#384=FACE_OUTER_BOUND('',#383,.F.);
#386=CARTESIAN_POINT('',(7.95E0,1.61E0,1.5E0));
#387=DIRECTION('',(0.E0,0.E0,1.E0));
#388=DIRECTION('',(-1.E0,0.E0,0.E0));
#389=AXIS2_PLACEMENT_3D('',#386,#387,#388);
#390=PLANE('',#389);
#392=ORIENTED_EDGE('',*,*,#391,.F.);
#394=ORIENTED_EDGE('',*,*,#393,.T.);
#395=ORIENTED_EDGE('',*,*,#377,.F.);
#396=ORIENTED_EDGE('',*,*,#360,.F.);
#398=ORIENTED_EDGE('',*,*,#397,.T.);
#400=ORIENTED_EDGE('',*,*,#399,.F.);
#402=ORIENTED_EDGE('',*,*,#401,.T.);
#403=EDGE_LOOP('',(#392,#394,#395,#396,#398,#400,#402));
#404=FACE_OUTER_BOUND('',#403,.F.);
#406=CARTESIAN_POINT('',(7.85E0,-5.E-2,-1.244484E1));
#407=DIRECTION('',(0.E0,0.E0,1.E0));
#408=DIRECTION('',(0.E0,-1.E0,0.E0));
#409=AXIS2_PLACEMENT_3D('',#406,#407,#408);
#410=CYLINDRICAL_SURFACE('',#409,1.E-1);
#411=ORIENTED_EDGE('',*,*,#391,.T.);
#413=ORIENTED_EDGE('',*,*,#412,.F.);
#415=ORIENTED_EDGE('',*,*,#414,.T.);
#417=ORIENTED_EDGE('',*,*,#416,.T.);
#418=EDGE_LOOP('',(#411,#413,#415,#417));
#419=FACE_OUTER_BOUND('',#418,.F.);
#421=CARTESIAN_POINT('',(7.95E0,1.61E0,-1.5E0));
#422=DIRECTION('',(1.E0,0.E0,0.E0));
#423=DIRECTION('',(0.E0,0.E0,1.E0));
#424=AXIS2_PLACEMENT_3D('',#421,#422,#423);
#425=PLANE('',#424);
#426=ORIENTED_EDGE('',*,*,#412,.T.);
#427=ORIENTED_EDGE('',*,*,#401,.F.);
#429=ORIENTED_EDGE('',*,*,#428,.T.);
#431=ORIENTED_EDGE('',*,*,#430,.T.);
#432=EDGE_LOOP('',(#426,#427,#429,#431));
#433=FACE_OUTER_BOUND('',#432,.F.);
#435=CARTESIAN_POINT('',(7.85E0,1.523397459622E0,1.244484E1));
#436=DIRECTION('',(0.E0,0.E0,-1.E0));
#437=DIRECTION('',(4.999999999990E-1,8.660254037850E-1,0.E0));
#438=AXIS2_PLACEMENT_3D('',#435,#436,#437);
#439=CYLINDRICAL_SURFACE('',#438,1.E-1);
#441=ORIENTED_EDGE('',*,*,#440,.T.);
#442=ORIENTED_EDGE('',*,*,#428,.F.);
#443=ORIENTED_EDGE('',*,*,#399,.T.);
#445=ORIENTED_EDGE('',*,*,#444,.T.);
#446=EDGE_LOOP('',(#441,#442,#443,#445));
#447=FACE_OUTER_BOUND('',#446,.F.);
#449=CARTESIAN_POINT('',(4.55E0,1.61E0,-1.5E0));
#450=DIRECTION('',(0.E0,0.E0,-1.E0));
#451=DIRECTION('',(1.E0,0.E0,0.E0));
#452=AXIS2_PLACEMENT_3D('',#449,#450,#451);
#453=PLANE('',#452);
#454=ORIENTED_EDGE('',*,*,#414,.F.);
#455=ORIENTED_EDGE('',*,*,#430,.F.);
#456=ORIENTED_EDGE('',*,*,#440,.F.);
#458=ORIENTED_EDGE('',*,*,#457,.F.);
#459=ORIENTED_EDGE('',*,*,#340,.T.);
#460=ORIENTED_EDGE('',*,*,#381,.T.);
#462=ORIENTED_EDGE('',*,*,#461,.T.);
#463=EDGE_LOOP('',(#454,#455,#456,#458,#459,#460,#462));
#464=FACE_OUTER_BOUND('',#463,.F.);
#466=CARTESIAN_POINT('',(7.9E0,0.E0,3.45E0));
#467=DIRECTION('',(1.E0,0.E0,0.E0));
#468=DIRECTION('',(0.E0,0.E0,-1.E0));
#469=AXIS2_PLACEMENT_3D('',#466,#467,#468);
#470=PLANE('',#469);
#471=ORIENTED_EDGE('',*,*,#444,.F.);
#472=ORIENTED_EDGE('',*,*,#397,.F.);
#473=ORIENTED_EDGE('',*,*,#358,.F.);
#475=ORIENTED_EDGE('',*,*,#474,.T.);
#477=ORIENTED_EDGE('',*,*,#476,.T.);
#479=ORIENTED_EDGE('',*,*,#478,.F.);
#480=ORIENTED_EDGE('',*,*,#342,.F.);
#481=ORIENTED_EDGE('',*,*,#457,.T.);
#482=EDGE_LOOP('',(#471,#472,#473,#475,#477,#479,#480,#481));
#483=FACE_OUTER_BOUND('',#482,.F.);
#485=CARTESIAN_POINT('',(-7.9E0,0.E0,3.45E0));
#486=DIRECTION('',(0.E0,0.E0,1.E0));
#487=DIRECTION('',(1.E0,0.E0,0.E0));
#488=AXIS2_PLACEMENT_3D('',#485,#486,#487);
#489=PLANE('',#488);
#490=ORIENTED_EDGE('',*,*,#356,.F.);
#492=ORIENTED_EDGE('',*,*,#491,.T.);
#494=ORIENTED_EDGE('',*,*,#493,.T.);
#495=ORIENTED_EDGE('',*,*,#474,.F.);
#496=EDGE_LOOP('',(#490,#492,#494,#495));
#497=FACE_OUTER_BOUND('',#496,.F.);
#499=CARTESIAN_POINT('',(-7.9E0,0.E0,-3.45E0));
#500=DIRECTION('',(-1.E0,0.E0,0.E0));
#501=DIRECTION('',(0.E0,0.E0,1.E0));
#502=AXIS2_PLACEMENT_3D('',#499,#500,#501);
#503=PLANE('',#502);
#505=ORIENTED_EDGE('',*,*,#504,.F.);
#507=ORIENTED_EDGE('',*,*,#506,.F.);
#508=ORIENTED_EDGE('',*,*,#346,.F.);
#510=ORIENTED_EDGE('',*,*,#509,.T.);
#512=ORIENTED_EDGE('',*,*,#511,.T.);
#513=ORIENTED_EDGE('',*,*,#491,.F.);
#514=ORIENTED_EDGE('',*,*,#354,.F.);
#516=ORIENTED_EDGE('',*,*,#515,.T.);
#517=EDGE_LOOP('',(#505,#507,#508,#510,#512,#513,#514,#516));
#518=FACE_OUTER_BOUND('',#517,.F.);
#520=CARTESIAN_POINT('',(-7.85E0,1.523397459622E0,-1.244484E1));
#521=DIRECTION('',(0.E0,0.E0,1.E0));
#522=DIRECTION('',(-4.999999999991E-1,8.660254037849E-1,0.E0));
#523=AXIS2_PLACEMENT_3D('',#520,#521,#522);
#524=CYLINDRICAL_SURFACE('',#523,1.E-1);
#526=ORIENTED_EDGE('',*,*,#525,.T.);
#528=ORIENTED_EDGE('',*,*,#527,.F.);
#530=ORIENTED_EDGE('',*,*,#529,.T.);
#531=ORIENTED_EDGE('',*,*,#504,.T.);
#532=EDGE_LOOP('',(#526,#528,#530,#531));
#533=FACE_OUTER_BOUND('',#532,.F.);
#535=CARTESIAN_POINT('',(-4.55E0,1.61E0,1.5E0));
#536=DIRECTION('',(0.E0,0.E0,1.E0));
#537=DIRECTION('',(-1.E0,0.E0,0.E0));
#538=AXIS2_PLACEMENT_3D('',#535,#536,#537);
#539=PLANE('',#538);
#541=ORIENTED_EDGE('',*,*,#540,.F.);
#543=ORIENTED_EDGE('',*,*,#542,.F.);
#544=ORIENTED_EDGE('',*,*,#525,.F.);
#545=ORIENTED_EDGE('',*,*,#515,.F.);
#546=ORIENTED_EDGE('',*,*,#352,.T.);
#548=ORIENTED_EDGE('',*,*,#547,.T.);
#550=ORIENTED_EDGE('',*,*,#549,.T.);
#551=EDGE_LOOP('',(#541,#543,#544,#545,#546,#548,#550));
#552=FACE_OUTER_BOUND('',#551,.F.);
#554=CARTESIAN_POINT('',(-7.85E0,-5.E-2,1.244484E1));
#555=DIRECTION('',(0.E0,0.E0,-1.E0));
#556=DIRECTION('',(0.E0,-1.E0,0.E0));
#557=AXIS2_PLACEMENT_3D('',#554,#555,#556);
#558=CYLINDRICAL_SURFACE('',#557,1.E-1);
#560=ORIENTED_EDGE('',*,*,#559,.T.);
#562=ORIENTED_EDGE('',*,*,#561,.F.);
#563=ORIENTED_EDGE('',*,*,#540,.T.);
#565=ORIENTED_EDGE('',*,*,#564,.T.);
#566=EDGE_LOOP('',(#560,#562,#563,#565));
#567=FACE_OUTER_BOUND('',#566,.F.);
#569=CARTESIAN_POINT('',(-7.95E0,1.61E0,-1.5E0));
#570=DIRECTION('',(0.E0,0.E0,-1.E0));
#571=DIRECTION('',(1.E0,0.E0,0.E0));
#572=AXIS2_PLACEMENT_3D('',#569,#570,#571);
#573=PLANE('',#572);
#574=ORIENTED_EDGE('',*,*,#559,.F.);
#576=ORIENTED_EDGE('',*,*,#575,.T.);
#578=ORIENTED_EDGE('',*,*,#577,.F.);
#579=ORIENTED_EDGE('',*,*,#348,.F.);
#580=ORIENTED_EDGE('',*,*,#506,.T.);
#581=ORIENTED_EDGE('',*,*,#529,.F.);
#583=ORIENTED_EDGE('',*,*,#582,.T.);
#584=EDGE_LOOP('',(#574,#576,#578,#579,#580,#581,#583));
#585=FACE_OUTER_BOUND('',#584,.F.);
#587=CARTESIAN_POINT('',(0.E0,-1.5E-1,0.E0));
#588=DIRECTION('',(0.E0,-1.E0,0.E0));
#589=DIRECTION('',(1.E0,0.E0,0.E0));
#590=AXIS2_PLACEMENT_3D('',#587,#588,#589);
#591=PLANE('',#590);
#593=ORIENTED_EDGE('',*,*,#592,.F.);
#595=ORIENTED_EDGE('',*,*,#594,.F.);
#596=EDGE_LOOP('',(#593,#595));
#597=FACE_OUTER_BOUND('',#596,.F.);
#599=CARTESIAN_POINT('',(0.E0,-1.5E-1,0.E0));
#600=DIRECTION('',(0.E0,-1.E0,0.E0));
#601=DIRECTION('',(1.E0,0.E0,0.E0));
#602=AXIS2_PLACEMENT_3D('',#599,#600,#601);
#603=PLANE('',#602);
#604=ORIENTED_EDGE('',*,*,#416,.F.);
#605=ORIENTED_EDGE('',*,*,#461,.F.);
#606=ORIENTED_EDGE('',*,*,#379,.F.);
#607=ORIENTED_EDGE('',*,*,#393,.F.);
#608=EDGE_LOOP('',(#604,#605,#606,#607));
#609=FACE_OUTER_BOUND('',#608,.F.);
#611=CARTESIAN_POINT('',(0.E0,-1.5E-1,0.E0));
#612=DIRECTION('',(0.E0,-1.E0,0.E0));
#613=DIRECTION('',(1.E0,0.E0,0.E0));
#614=AXIS2_PLACEMENT_3D('',#611,#612,#613);
#615=PLANE('',#614);
#616=ORIENTED_EDGE('',*,*,#564,.F.);
#617=ORIENTED_EDGE('',*,*,#549,.F.);
#619=ORIENTED_EDGE('',*,*,#618,.F.);
#620=ORIENTED_EDGE('',*,*,#575,.F.);
#621=EDGE_LOOP('',(#616,#617,#619,#620));
#622=FACE_OUTER_BOUND('',#621,.F.);
#624=CARTESIAN_POINT('',(0.E0,1.61E0,0.E0));
#625=DIRECTION('',(0.E0,-1.E0,0.E0));
#626=DIRECTION('',(1.E0,0.E0,0.E0));
#627=AXIS2_PLACEMENT_3D('',#624,#625,#626);
#628=CYLINDRICAL_SURFACE('',#627,1.4E0);
#629=ORIENTED_EDGE('',*,*,#364,.F.);
#631=ORIENTED_EDGE('',*,*,#630,.T.);
#632=ORIENTED_EDGE('',*,*,#592,.T.);
#634=ORIENTED_EDGE('',*,*,#633,.F.);
#635=EDGE_LOOP('',(#629,#631,#632,#634));
#636=FACE_OUTER_BOUND('',#635,.F.);
#638=CARTESIAN_POINT('',(0.E0,1.61E0,0.E0));
#639=DIRECTION('',(0.E0,-1.E0,0.E0));
#640=DIRECTION('',(1.E0,0.E0,0.E0));
#641=AXIS2_PLACEMENT_3D('',#638,#639,#640);
#642=CYLINDRICAL_SURFACE('',#641,1.4E0);
#643=ORIENTED_EDGE('',*,*,#366,.F.);
#644=ORIENTED_EDGE('',*,*,#633,.T.);
#645=ORIENTED_EDGE('',*,*,#594,.T.);
#646=ORIENTED_EDGE('',*,*,#630,.F.);
#647=EDGE_LOOP('',(#643,#644,#645,#646));
#648=FACE_OUTER_BOUND('',#647,.F.);
#650=CARTESIAN_POINT('',(-4.55E0,1.61E0,-1.5E0));
#651=DIRECTION('',(1.E0,0.E0,0.E0));
#652=DIRECTION('',(0.E0,0.E0,1.E0));
#653=AXIS2_PLACEMENT_3D('',#650,#651,#652);
#654=PLANE('',#653);
#655=ORIENTED_EDGE('',*,*,#350,.F.);
#656=ORIENTED_EDGE('',*,*,#577,.T.);
#657=ORIENTED_EDGE('',*,*,#618,.T.);
#658=ORIENTED_EDGE('',*,*,#547,.F.);
#659=EDGE_LOOP('',(#655,#656,#657,#658));
#660=FACE_OUTER_BOUND('',#659,.F.);
#662=CARTESIAN_POINT('',(-7.95E0,1.61E0,1.5E0));
#663=DIRECTION('',(-1.E0,0.E0,0.E0));
#664=DIRECTION('',(0.E0,0.E0,-1.E0));
#665=AXIS2_PLACEMENT_3D('',#662,#663,#664);
#666=PLANE('',#665);
#667=ORIENTED_EDGE('',*,*,#561,.T.);
#668=ORIENTED_EDGE('',*,*,#582,.F.);
#669=ORIENTED_EDGE('',*,*,#527,.T.);
#670=ORIENTED_EDGE('',*,*,#542,.T.);
#671=EDGE_LOOP('',(#667,#668,#669,#670));
#672=FACE_OUTER_BOUND('',#671,.F.);
#674=CARTESIAN_POINT('',(7.9E0,0.E0,-3.45E0));
#675=DIRECTION('',(0.E0,0.E0,-1.E0));
#676=DIRECTION('',(-1.E0,0.E0,0.E0));
#677=AXIS2_PLACEMENT_3D('',#674,#675,#676);
#678=PLANE('',#677);
#679=ORIENTED_EDGE('',*,*,#344,.F.);
#680=ORIENTED_EDGE('',*,*,#478,.T.);
#682=ORIENTED_EDGE('',*,*,#681,.T.);
#683=ORIENTED_EDGE('',*,*,#509,.F.);
#684=EDGE_LOOP('',(#679,#680,#682,#683));
#685=FACE_OUTER_BOUND('',#684,.F.);
#687=CARTESIAN_POINT('',(0.E0,6.25E0,0.E0));
#688=DIRECTION('',(0.E0,1.E0,0.E0));
#689=DIRECTION('',(1.E0,0.E0,0.E0));
#690=AXIS2_PLACEMENT_3D('',#687,#688,#689);
#691=PLANE('',#690);
#692=ORIENTED_EDGE('',*,*,#511,.F.);
#693=ORIENTED_EDGE('',*,*,#681,.F.);
#694=ORIENTED_EDGE('',*,*,#476,.F.);
#695=ORIENTED_EDGE('',*,*,#493,.F.);
#696=EDGE_LOOP('',(#692,#693,#694,#695));
#697=FACE_OUTER_BOUND('',#696,.F.);
#699=CLOSED_SHELL('',(#370,#385,#405,#420,#434,#448,#465,#484,#498,#519,#534,
#553,#568,#586,#598,#610,#623,#637,#649,#661,#673,#686,#698));
#700=MANIFOLD_SOLID_BREP('',#699);
#702=DIMENSIONAL_EXPONENTS(0.E0,0.E0,0.E0,0.E0,0.E0,0.E0,0.E0);
#704=PLANE_ANGLE_MEASURE_WITH_UNIT(PLANE_ANGLE_MEASURE(1.745329251994E-2),#703);
#705=(CONVERSION_BASED_UNIT('DEGREE',#704)NAMED_UNIT(*)PLANE_ANGLE_UNIT());
#707=UNCERTAINTY_MEASURE_WITH_UNIT(LENGTH_MEASURE(7.698221860732E-4),#701,
'closure',
'Maximum model space distance between geometric entities at asserted connectivities');
#710=APPLICATION_CONTEXT(
'CONFIGURATION CONTROLLED 3D DESIGNS OF MECHANICAL PARTS AND ASSEMBLIES');
#711=APPLICATION_PROTOCOL_DEFINITION('international standard',
'config_control_design',1994,#710);
#712=DESIGN_CONTEXT('',#710,'design');
#713=MECHANICAL_CONTEXT('',#710,'mechanical');
#714=PRODUCT('PWR1913','PWR1913','NOT SPECIFIED',(#713));
#715=PRODUCT_DEFINITION_FORMATION_WITH_SPECIFIED_SOURCE('1','LAST_VERSION',#714,
.MADE.);
#719=PRODUCT_CATEGORY('part','');
#720=PRODUCT_RELATED_PRODUCT_CATEGORY('detail','',(#714));
#721=PRODUCT_CATEGORY_RELATIONSHIP('','',#719,#720);
#722=SECURITY_CLASSIFICATION_LEVEL('unclassified');
#723=SECURITY_CLASSIFICATION('','',#722);
#724=CC_DESIGN_SECURITY_CLASSIFICATION(#723,(#715));
#725=APPROVAL_STATUS('approved');
#726=APPROVAL(#725,'');
#727=CC_DESIGN_APPROVAL(#726,(#723,#715,#716));
#728=CALENDAR_DATE(112,17,8);
#729=COORDINATED_UNIVERSAL_TIME_OFFSET(7,0,.BEHIND.);
#730=LOCAL_TIME(15,54,1.8E1,#729);
#731=DATE_AND_TIME(#728,#730);
#732=APPROVAL_DATE_TIME(#731,#726);
#733=DATE_TIME_ROLE('creation_date');
#734=CC_DESIGN_DATE_AND_TIME_ASSIGNMENT(#731,#733,(#716));
#735=DATE_TIME_ROLE('classification_date');
#736=CC_DESIGN_DATE_AND_TIME_ASSIGNMENT(#731,#735,(#723));
#737=PERSON('UNSPECIFIED','UNSPECIFIED',$,$,$,$);
#738=ORGANIZATION('UNSPECIFIED','UNSPECIFIED','UNSPECIFIED');
#739=PERSON_AND_ORGANIZATION(#737,#738);
#740=APPROVAL_ROLE('approver');
#741=APPROVAL_PERSON_ORGANIZATION(#739,#726,#740);
#742=PERSON_AND_ORGANIZATION_ROLE('creator');
#743=CC_DESIGN_PERSON_AND_ORGANIZATION_ASSIGNMENT(#739,#742,(#715,#716));
#744=PERSON_AND_ORGANIZATION_ROLE('design_supplier');
#745=CC_DESIGN_PERSON_AND_ORGANIZATION_ASSIGNMENT(#739,#744,(#715));
#746=PERSON_AND_ORGANIZATION_ROLE('classification_officer');
#747=CC_DESIGN_PERSON_AND_ORGANIZATION_ASSIGNMENT(#739,#746,(#723));
#748=PERSON_AND_ORGANIZATION_ROLE('design_owner');
#749=CC_DESIGN_PERSON_AND_ORGANIZATION_ASSIGNMENT(#739,#748,(#714));
#53=CIRCLE('',#52,1.4E0);
#58=CIRCLE('',#57,1.4E0);
#67=CIRCLE('',#66,1.E-1);
#72=CIRCLE('',#71,1.E-1);
#93=CIRCLE('',#92,1.E-1);
#98=CIRCLE('',#97,1.E-1);
#143=CIRCLE('',#142,1.E-1);
#148=CIRCLE('',#147,1.E-1);
#157=CIRCLE('',#156,1.E-1);
#162=CIRCLE('',#161,1.E-1);
#171=CIRCLE('',#170,1.4E0);
#176=CIRCLE('',#175,1.4E0);
#338=EDGE_CURVE('',#279,#280,#4,.T.);
#340=EDGE_CURVE('',#282,#280,#8,.T.);
#342=EDGE_CURVE('',#282,#259,#12,.T.);
#344=EDGE_CURVE('',#259,#260,#16,.T.);
#346=EDGE_CURVE('',#260,#291,#20,.T.);
#348=EDGE_CURVE('',#291,#292,#24,.T.);
#350=EDGE_CURVE('',#292,#288,#28,.T.);
#352=EDGE_CURVE('',#287,#288,#32,.T.);
#354=EDGE_CURVE('',#287,#255,#36,.T.);
#356=EDGE_CURVE('',#255,#256,#40,.T.);
#358=EDGE_CURVE('',#256,#284,#44,.T.);
#360=EDGE_CURVE('',#284,#279,#48,.T.);
#364=EDGE_CURVE('',#299,#300,#53,.T.);
#366=EDGE_CURVE('',#300,#299,#58,.T.);
#370=ADVANCED_FACE('',(#363,#369),#337,.F.);
#377=EDGE_CURVE('',#279,#271,#62,.T.);
#379=EDGE_CURVE('',#271,#272,#188,.T.);
#381=EDGE_CURVE('',#280,#272,#102,.T.);
#385=ADVANCED_FACE('',(#384),#375,.T.);
#391=EDGE_CURVE('',#303,#304,#67,.T.);
#393=EDGE_CURVE('',#303,#271,#192,.T.);
#397=EDGE_CURVE('',#284,#316,#110,.T.);
#399=EDGE_CURVE('',#314,#316,#72,.T.);
#401=EDGE_CURVE('',#314,#304,#76,.T.);
#405=ADVANCED_FACE('',(#404),#390,.T.);
#412=EDGE_CURVE('',#306,#304,#80,.T.);
#414=EDGE_CURVE('',#306,#308,#93,.T.);
#416=EDGE_CURVE('',#308,#303,#180,.T.);
#420=ADVANCED_FACE('',(#419),#410,.T.);
#428=EDGE_CURVE('',#314,#312,#84,.T.);
#430=EDGE_CURVE('',#312,#306,#88,.T.);
#434=ADVANCED_FACE('',(#433),#425,.T.);
#440=EDGE_CURVE('',#311,#312,#98,.T.);
#444=EDGE_CURVE('',#316,#311,#106,.T.);
#448=ADVANCED_FACE('',(#447),#439,.T.);
#457=EDGE_CURVE('',#282,#311,#118,.T.);
#461=EDGE_CURVE('',#272,#308,#184,.T.);
#465=ADVANCED_FACE('',(#464),#453,.T.);
#474=EDGE_CURVE('',#256,#266,#114,.T.);
#476=EDGE_CURVE('',#266,#268,#248,.T.);
#478=EDGE_CURVE('',#259,#268,#236,.T.);
#484=ADVANCED_FACE('',(#483),#470,.T.);
#491=EDGE_CURVE('',#255,#264,#122,.T.);
#493=EDGE_CURVE('',#264,#266,#252,.T.);
#498=ADVANCED_FACE('',(#497),#489,.T.);
#504=EDGE_CURVE('',#332,#327,#126,.T.);
#506=EDGE_CURVE('',#291,#332,#130,.T.);
#509=EDGE_CURVE('',#260,#263,#134,.T.);
#511=EDGE_CURVE('',#263,#264,#240,.T.);
#515=EDGE_CURVE('',#287,#327,#138,.T.);
#519=ADVANCED_FACE('',(#518),#503,.T.);
#525=EDGE_CURVE('',#327,#328,#148,.T.);
#527=EDGE_CURVE('',#330,#328,#228,.T.);
#529=EDGE_CURVE('',#330,#332,#162,.T.);
#534=ADVANCED_FACE('',(#533),#524,.T.);
#540=EDGE_CURVE('',#322,#324,#143,.T.);
#542=EDGE_CURVE('',#328,#322,#232,.T.);
#547=EDGE_CURVE('',#288,#276,#152,.T.);
#549=EDGE_CURVE('',#276,#324,#200,.T.);
#553=ADVANCED_FACE('',(#552),#539,.T.);
#559=EDGE_CURVE('',#319,#320,#157,.T.);
#561=EDGE_CURVE('',#322,#320,#224,.T.);
#564=EDGE_CURVE('',#324,#319,#196,.T.);
#568=ADVANCED_FACE('',(#567),#558,.T.);
#575=EDGE_CURVE('',#319,#275,#208,.T.);
#577=EDGE_CURVE('',#292,#275,#220,.T.);
#582=EDGE_CURVE('',#330,#320,#166,.T.);
#586=ADVANCED_FACE('',(#585),#573,.T.);
#592=EDGE_CURVE('',#295,#296,#171,.T.);
#594=EDGE_CURVE('',#296,#295,#176,.T.);
#598=ADVANCED_FACE('',(#597),#591,.T.);
#610=ADVANCED_FACE('',(#609),#603,.T.);
#618=EDGE_CURVE('',#275,#276,#204,.T.);
#623=ADVANCED_FACE('',(#622),#615,.T.);
#630=EDGE_CURVE('',#299,#295,#212,.T.);
#633=EDGE_CURVE('',#300,#296,#216,.T.);
#637=ADVANCED_FACE('',(#636),#628,.T.);
#649=ADVANCED_FACE('',(#648),#642,.T.);
#661=ADVANCED_FACE('',(#660),#654,.T.);
#673=ADVANCED_FACE('',(#672),#666,.T.);
#681=EDGE_CURVE('',#268,#263,#244,.T.);
#686=ADVANCED_FACE('',(#685),#678,.T.);
#698=ADVANCED_FACE('',(#697),#691,.T.);
#701=(LENGTH_UNIT()NAMED_UNIT(*)SI_UNIT(.MILLI.,.METRE.));
#703=(NAMED_UNIT(*)PLANE_ANGLE_UNIT()SI_UNIT($,.RADIAN.));
#706=(NAMED_UNIT(*)SI_UNIT($,.STERADIAN.)SOLID_ANGLE_UNIT());
#708=(GEOMETRIC_REPRESENTATION_CONTEXT(3)GLOBAL_UNCERTAINTY_ASSIGNED_CONTEXT((
#707))GLOBAL_UNIT_ASSIGNED_CONTEXT((#701,#705,#706))REPRESENTATION_CONTEXT
('ID1','3'));
#709=ADVANCED_BREP_SHAPE_REPRESENTATION('',(#700),#708);
#716=PRODUCT_DEFINITION('design','',#715,#712);
#717=PRODUCT_DEFINITION_SHAPE('','SHAPE FOR PWR1913.',#716);
#718=SHAPE_DEFINITION_REPRESENTATION(#717,#709);
ENDSEC;
END-ISO-10303-21;
