ISO-10303-21;
HEADER;
FILE_DESCRIPTION((''),'2;1');
FILE_NAME('PWR4413','2012-08-27T',('ryans'),('Bourns, Inc.'),
'PRO/ENGINEER BY PARAMETRIC TECHNOLOGY CORPORATION, 2010100',
'PRO/ENGINEER BY PARAMETRIC TECHNOLOGY CORPORATION, 2010100','');
FILE_SCHEMA(('CONFIG_CONTROL_DESIGN'));
ENDSEC;
DATA;
#1=DIRECTION('',(1.E0,0.E0,0.E0));
#2=VECTOR('',#1,9.E0);
#3=CARTESIAN_POINT('',(-4.5E0,1.31E1,-2.E0));
#4=LINE('',#3,#2);
#5=DIRECTION('',(0.E0,-1.E0,0.E0));
#6=VECTOR('',#5,1.31E1);
#7=CARTESIAN_POINT('',(4.5E0,1.31E1,-2.E0));
#8=LINE('',#7,#6);
#9=DIRECTION('',(1.E0,0.E0,0.E0));
#10=VECTOR('',#9,2.657686372846E0);
#11=CARTESIAN_POINT('',(4.5E0,0.E0,-2.E0));
#12=LINE('',#11,#10);
#13=DIRECTION('',(0.E0,1.E0,0.E0));
#14=VECTOR('',#13,4.E-1);
#15=CARTESIAN_POINT('',(7.157686372846E0,0.E0,-2.E0));
#16=LINE('',#15,#14);
#17=DIRECTION('',(-1.E0,0.E0,0.E0));
#18=VECTOR('',#17,2.257686372846E0);
#19=CARTESIAN_POINT('',(7.157686372846E0,4.E-1,-2.E0));
#20=LINE('',#19,#18);
#21=DIRECTION('',(0.E0,1.E0,0.E0));
#22=VECTOR('',#21,1.31E1);
#23=CARTESIAN_POINT('',(4.9E0,4.E-1,-2.E0));
#24=LINE('',#23,#22);
#25=DIRECTION('',(-1.E0,0.E0,0.E0));
#26=VECTOR('',#25,9.8E0);
#27=CARTESIAN_POINT('',(4.9E0,1.35E1,-2.E0));
#28=LINE('',#27,#26);
#29=DIRECTION('',(0.E0,-1.E0,0.E0));
#30=VECTOR('',#29,1.31E1);
#31=CARTESIAN_POINT('',(-4.9E0,1.35E1,-2.E0));
#32=LINE('',#31,#30);
#33=DIRECTION('',(-1.E0,0.E0,0.E0));
#34=VECTOR('',#33,2.257686372846E0);
#35=CARTESIAN_POINT('',(-4.9E0,4.E-1,-2.E0));
#36=LINE('',#35,#34);
#37=DIRECTION('',(0.E0,-1.E0,0.E0));
#38=VECTOR('',#37,4.E-1);
#39=CARTESIAN_POINT('',(-7.157686372846E0,4.E-1,-2.E0));
#40=LINE('',#39,#38);
#41=DIRECTION('',(1.E0,0.E0,0.E0));
#42=VECTOR('',#41,2.657686372846E0);
#43=CARTESIAN_POINT('',(-7.157686372846E0,0.E0,-2.E0));
#44=LINE('',#43,#42);
#45=DIRECTION('',(0.E0,1.E0,0.E0));
#46=VECTOR('',#45,1.31E1);
#47=CARTESIAN_POINT('',(-4.5E0,0.E0,-2.E0));
#48=LINE('',#47,#46);
#49=DIRECTION('',(0.E0,0.E0,1.E0));
#50=VECTOR('',#49,4.E0);
#51=CARTESIAN_POINT('',(-4.5E0,1.31E1,-2.E0));
#52=LINE('',#51,#50);
#53=DIRECTION('',(0.E0,0.E0,1.E0));
#54=VECTOR('',#53,4.E0);
#55=CARTESIAN_POINT('',(-4.5E0,0.E0,-2.E0));
#56=LINE('',#55,#54);
#57=DIRECTION('',(0.E0,0.E0,1.E0));
#58=VECTOR('',#57,4.E0);
#59=CARTESIAN_POINT('',(-7.157686372846E0,0.E0,-2.E0));
#60=LINE('',#59,#58);
#61=CARTESIAN_POINT('',(-5.715E0,0.E0,0.E0));
#62=DIRECTION('',(0.E0,-1.E0,0.E0));
#63=DIRECTION('',(1.E0,0.E0,0.E0));
#64=AXIS2_PLACEMENT_3D('',#61,#62,#63);
#66=CARTESIAN_POINT('',(-5.715E0,0.E0,0.E0));
#67=DIRECTION('',(0.E0,-1.E0,0.E0));
#68=DIRECTION('',(-1.E0,0.E0,0.E0));
#69=AXIS2_PLACEMENT_3D('',#66,#67,#68);
#71=DIRECTION('',(0.E0,0.E0,1.E0));
#72=VECTOR('',#71,4.E0);
#73=CARTESIAN_POINT('',(-7.157686372846E0,4.E-1,-2.E0));
#74=LINE('',#73,#72);
#75=DIRECTION('',(0.E0,0.E0,1.E0));
#76=VECTOR('',#75,4.E0);
#77=CARTESIAN_POINT('',(-4.9E0,4.E-1,-2.E0));
#78=LINE('',#77,#76);
#79=DIRECTION('',(0.E0,0.E0,1.E0));
#80=VECTOR('',#79,4.E0);
#81=CARTESIAN_POINT('',(-4.9E0,1.35E1,-2.E0));
#82=LINE('',#81,#80);
#83=DIRECTION('',(0.E0,0.E0,1.E0));
#84=VECTOR('',#83,4.E0);
#85=CARTESIAN_POINT('',(4.9E0,1.35E1,-2.E0));
#86=LINE('',#85,#84);
#87=DIRECTION('',(0.E0,0.E0,1.E0));
#88=VECTOR('',#87,4.E0);
#89=CARTESIAN_POINT('',(4.9E0,4.E-1,-2.E0));
#90=LINE('',#89,#88);
#91=DIRECTION('',(0.E0,0.E0,1.E0));
#92=VECTOR('',#91,4.E0);
#93=CARTESIAN_POINT('',(7.157686372846E0,4.E-1,-2.E0));
#94=LINE('',#93,#92);
#95=DIRECTION('',(0.E0,0.E0,1.E0));
#96=VECTOR('',#95,4.E0);
#97=CARTESIAN_POINT('',(7.157686372846E0,0.E0,-2.E0));
#98=LINE('',#97,#96);
#99=DIRECTION('',(0.E0,0.E0,1.E0));
#100=VECTOR('',#99,4.E0);
#101=CARTESIAN_POINT('',(4.5E0,0.E0,-2.E0));
#102=LINE('',#101,#100);
#103=CARTESIAN_POINT('',(5.715E0,0.E0,0.E0));
#104=DIRECTION('',(0.E0,-1.E0,0.E0));
#105=DIRECTION('',(1.E0,0.E0,0.E0));
#106=AXIS2_PLACEMENT_3D('',#103,#104,#105);
#108=CARTESIAN_POINT('',(5.715E0,0.E0,0.E0));
#109=DIRECTION('',(0.E0,-1.E0,0.E0));
#110=DIRECTION('',(-1.E0,0.E0,0.E0));
#111=AXIS2_PLACEMENT_3D('',#108,#109,#110);
#113=DIRECTION('',(0.E0,0.E0,1.E0));
#114=VECTOR('',#113,4.E0);
#115=CARTESIAN_POINT('',(4.5E0,1.31E1,-2.E0));
#116=LINE('',#115,#114);
#117=DIRECTION('',(1.E0,0.E0,0.E0));
#118=VECTOR('',#117,9.E0);
#119=CARTESIAN_POINT('',(-4.5E0,1.31E1,2.E0));
#120=LINE('',#119,#118);
#121=DIRECTION('',(0.E0,1.E0,0.E0));
#122=VECTOR('',#121,1.31E1);
#123=CARTESIAN_POINT('',(-4.5E0,0.E0,2.E0));
#124=LINE('',#123,#122);
#125=DIRECTION('',(1.E0,0.E0,0.E0));
#126=VECTOR('',#125,2.657686372846E0);
#127=CARTESIAN_POINT('',(-7.157686372846E0,0.E0,2.E0));
#128=LINE('',#127,#126);
#129=DIRECTION('',(0.E0,-1.E0,0.E0));
#130=VECTOR('',#129,4.E-1);
#131=CARTESIAN_POINT('',(-7.157686372846E0,4.E-1,2.E0));
#132=LINE('',#131,#130);
#133=DIRECTION('',(-1.E0,0.E0,0.E0));
#134=VECTOR('',#133,2.257686372846E0);
#135=CARTESIAN_POINT('',(-4.9E0,4.E-1,2.E0));
#136=LINE('',#135,#134);
#137=DIRECTION('',(0.E0,-1.E0,0.E0));
#138=VECTOR('',#137,1.31E1);
#139=CARTESIAN_POINT('',(-4.9E0,1.35E1,2.E0));
#140=LINE('',#139,#138);
#141=DIRECTION('',(-1.E0,0.E0,0.E0));
#142=VECTOR('',#141,9.8E0);
#143=CARTESIAN_POINT('',(4.9E0,1.35E1,2.E0));
#144=LINE('',#143,#142);
#145=DIRECTION('',(0.E0,1.E0,0.E0));
#146=VECTOR('',#145,1.31E1);
#147=CARTESIAN_POINT('',(4.9E0,4.E-1,2.E0));
#148=LINE('',#147,#146);
#149=DIRECTION('',(-1.E0,0.E0,0.E0));
#150=VECTOR('',#149,2.257686372846E0);
#151=CARTESIAN_POINT('',(7.157686372846E0,4.E-1,2.E0));
#152=LINE('',#151,#150);
#153=DIRECTION('',(0.E0,1.E0,0.E0));
#154=VECTOR('',#153,4.E-1);
#155=CARTESIAN_POINT('',(7.157686372846E0,0.E0,2.E0));
#156=LINE('',#155,#154);
#157=DIRECTION('',(1.E0,0.E0,0.E0));
#158=VECTOR('',#157,2.657686372846E0);
#159=CARTESIAN_POINT('',(4.5E0,0.E0,2.E0));
#160=LINE('',#159,#158);
#161=DIRECTION('',(0.E0,-1.E0,0.E0));
#162=VECTOR('',#161,1.31E1);
#163=CARTESIAN_POINT('',(4.5E0,1.31E1,2.E0));
#164=LINE('',#163,#162);
#165=DIRECTION('',(0.E0,-1.E0,0.E0));
#166=VECTOR('',#165,4.5E0);
#167=CARTESIAN_POINT('',(6.115E0,0.E0,0.E0));
#168=LINE('',#167,#166);
#169=DIRECTION('',(0.E0,-1.E0,0.E0));
#170=VECTOR('',#169,4.5E0);
#171=CARTESIAN_POINT('',(5.315E0,0.E0,0.E0));
#172=LINE('',#171,#170);
#173=CARTESIAN_POINT('',(5.715E0,-4.5E0,0.E0));
#174=DIRECTION('',(0.E0,-1.E0,0.E0));
#175=DIRECTION('',(1.E0,0.E0,0.E0));
#176=AXIS2_PLACEMENT_3D('',#173,#174,#175);
#178=CARTESIAN_POINT('',(5.715E0,-4.5E0,0.E0));
#179=DIRECTION('',(0.E0,-1.E0,0.E0));
#180=DIRECTION('',(-1.E0,0.E0,0.E0));
#181=AXIS2_PLACEMENT_3D('',#178,#179,#180);
#183=CARTESIAN_POINT('',(-5.715E0,-4.5E0,0.E0));
#184=DIRECTION('',(0.E0,-1.E0,0.E0));
#185=DIRECTION('',(1.E0,0.E0,0.E0));
#186=AXIS2_PLACEMENT_3D('',#183,#184,#185);
#188=CARTESIAN_POINT('',(-5.715E0,-4.5E0,0.E0));
#189=DIRECTION('',(0.E0,-1.E0,0.E0));
#190=DIRECTION('',(-1.E0,0.E0,0.E0));
#191=AXIS2_PLACEMENT_3D('',#188,#189,#190);
#193=DIRECTION('',(0.E0,-1.E0,0.E0));
#194=VECTOR('',#193,4.5E0);
#195=CARTESIAN_POINT('',(-5.315E0,0.E0,0.E0));
#196=LINE('',#195,#194);
#197=DIRECTION('',(0.E0,-1.E0,0.E0));
#198=VECTOR('',#197,4.5E0);
#199=CARTESIAN_POINT('',(-6.115E0,0.E0,0.E0));
#200=LINE('',#199,#198);
#201=CARTESIAN_POINT('',(-4.5E0,1.31E1,-2.E0));
#202=CARTESIAN_POINT('',(4.5E0,1.31E1,-2.E0));
#203=VERTEX_POINT('',#201);
#204=VERTEX_POINT('',#202);
#205=CARTESIAN_POINT('',(4.5E0,0.E0,-2.E0));
#206=VERTEX_POINT('',#205);
#207=CARTESIAN_POINT('',(7.157686372846E0,0.E0,-2.E0));
#208=VERTEX_POINT('',#207);
#209=CARTESIAN_POINT('',(7.157686372846E0,4.E-1,-2.E0));
#210=VERTEX_POINT('',#209);
#211=CARTESIAN_POINT('',(4.9E0,4.E-1,-2.E0));
#212=VERTEX_POINT('',#211);
#213=CARTESIAN_POINT('',(4.9E0,1.35E1,-2.E0));
#214=VERTEX_POINT('',#213);
#215=CARTESIAN_POINT('',(-4.9E0,1.35E1,-2.E0));
#216=VERTEX_POINT('',#215);
#217=CARTESIAN_POINT('',(-4.9E0,4.E-1,-2.E0));
#218=VERTEX_POINT('',#217);
#219=CARTESIAN_POINT('',(-7.157686372846E0,4.E-1,-2.E0));
#220=VERTEX_POINT('',#219);
#221=CARTESIAN_POINT('',(-7.157686372846E0,0.E0,-2.E0));
#222=VERTEX_POINT('',#221);
#223=CARTESIAN_POINT('',(-4.5E0,0.E0,-2.E0));
#224=VERTEX_POINT('',#223);
#225=CARTESIAN_POINT('',(-4.5E0,1.31E1,2.E0));
#226=CARTESIAN_POINT('',(4.5E0,1.31E1,2.E0));
#227=VERTEX_POINT('',#225);
#228=VERTEX_POINT('',#226);
#229=CARTESIAN_POINT('',(4.5E0,0.E0,2.E0));
#230=VERTEX_POINT('',#229);
#231=CARTESIAN_POINT('',(7.157686372846E0,0.E0,2.E0));
#232=VERTEX_POINT('',#231);
#233=CARTESIAN_POINT('',(7.157686372846E0,4.E-1,2.E0));
#234=VERTEX_POINT('',#233);
#235=CARTESIAN_POINT('',(4.9E0,4.E-1,2.E0));
#236=VERTEX_POINT('',#235);
#237=CARTESIAN_POINT('',(4.9E0,1.35E1,2.E0));
#238=VERTEX_POINT('',#237);
#239=CARTESIAN_POINT('',(-4.9E0,1.35E1,2.E0));
#240=VERTEX_POINT('',#239);
#241=CARTESIAN_POINT('',(-4.9E0,4.E-1,2.E0));
#242=VERTEX_POINT('',#241);
#243=CARTESIAN_POINT('',(-7.157686372846E0,4.E-1,2.E0));
#244=VERTEX_POINT('',#243);
#245=CARTESIAN_POINT('',(-7.157686372846E0,0.E0,2.E0));
#246=VERTEX_POINT('',#245);
#247=CARTESIAN_POINT('',(-4.5E0,0.E0,2.E0));
#248=VERTEX_POINT('',#247);
#249=CARTESIAN_POINT('',(6.115E0,-4.5E0,0.E0));
#250=CARTESIAN_POINT('',(5.315E0,-4.5E0,0.E0));
#251=VERTEX_POINT('',#249);
#252=VERTEX_POINT('',#250);
#253=CARTESIAN_POINT('',(-5.315E0,-4.5E0,0.E0));
#254=CARTESIAN_POINT('',(-6.115E0,-4.5E0,0.E0));
#255=VERTEX_POINT('',#253);
#256=VERTEX_POINT('',#254);
#257=CARTESIAN_POINT('',(6.115E0,0.E0,0.E0));
#258=CARTESIAN_POINT('',(5.315E0,0.E0,0.E0));
#259=VERTEX_POINT('',#257);
#260=VERTEX_POINT('',#258);
#261=CARTESIAN_POINT('',(-5.315E0,0.E0,0.E0));
#262=CARTESIAN_POINT('',(-6.115E0,0.E0,0.E0));
#263=VERTEX_POINT('',#261);
#264=VERTEX_POINT('',#262);
#265=CARTESIAN_POINT('',(0.E0,0.E0,-2.E0));
#266=DIRECTION('',(0.E0,0.E0,1.E0));
#267=DIRECTION('',(1.E0,0.E0,0.E0));
#268=AXIS2_PLACEMENT_3D('',#265,#266,#267);
#269=PLANE('',#268);
#271=ORIENTED_EDGE('',*,*,#270,.T.);
#273=ORIENTED_EDGE('',*,*,#272,.T.);
#275=ORIENTED_EDGE('',*,*,#274,.T.);
#277=ORIENTED_EDGE('',*,*,#276,.T.);
#279=ORIENTED_EDGE('',*,*,#278,.T.);
#281=ORIENTED_EDGE('',*,*,#280,.T.);
#283=ORIENTED_EDGE('',*,*,#282,.T.);
#285=ORIENTED_EDGE('',*,*,#284,.T.);
#287=ORIENTED_EDGE('',*,*,#286,.T.);
#289=ORIENTED_EDGE('',*,*,#288,.T.);
#291=ORIENTED_EDGE('',*,*,#290,.T.);
#293=ORIENTED_EDGE('',*,*,#292,.T.);
#294=EDGE_LOOP('',(#271,#273,#275,#277,#279,#281,#283,#285,#287,#289,#291,
#293));
#295=FACE_OUTER_BOUND('',#294,.F.);
#297=CARTESIAN_POINT('',(-4.5E0,1.31E1,-2.E0));
#298=DIRECTION('',(0.E0,-1.E0,0.E0));
#299=DIRECTION('',(1.E0,0.E0,0.E0));
#300=AXIS2_PLACEMENT_3D('',#297,#298,#299);
#301=PLANE('',#300);
#302=ORIENTED_EDGE('',*,*,#270,.F.);
#304=ORIENTED_EDGE('',*,*,#303,.T.);
#306=ORIENTED_EDGE('',*,*,#305,.T.);
#308=ORIENTED_EDGE('',*,*,#307,.F.);
#309=EDGE_LOOP('',(#302,#304,#306,#308));
#310=FACE_OUTER_BOUND('',#309,.F.);
#312=CARTESIAN_POINT('',(-4.5E0,0.E0,-2.E0));
#313=DIRECTION('',(1.E0,0.E0,0.E0));
#314=DIRECTION('',(0.E0,1.E0,0.E0));
#315=AXIS2_PLACEMENT_3D('',#312,#313,#314);
#316=PLANE('',#315);
#317=ORIENTED_EDGE('',*,*,#292,.F.);
#319=ORIENTED_EDGE('',*,*,#318,.T.);
#321=ORIENTED_EDGE('',*,*,#320,.T.);
#322=ORIENTED_EDGE('',*,*,#303,.F.);
#323=EDGE_LOOP('',(#317,#319,#321,#322));
#324=FACE_OUTER_BOUND('',#323,.F.);
#326=CARTESIAN_POINT('',(-7.157686372846E0,0.E0,-2.E0));
#327=DIRECTION('',(0.E0,-1.E0,0.E0));
#328=DIRECTION('',(1.E0,0.E0,0.E0));
#329=AXIS2_PLACEMENT_3D('',#326,#327,#328);
#330=PLANE('',#329);
#331=ORIENTED_EDGE('',*,*,#290,.F.);
#333=ORIENTED_EDGE('',*,*,#332,.T.);
#335=ORIENTED_EDGE('',*,*,#334,.T.);
#336=ORIENTED_EDGE('',*,*,#318,.F.);
#337=EDGE_LOOP('',(#331,#333,#335,#336));
#338=FACE_OUTER_BOUND('',#337,.F.);
#340=ORIENTED_EDGE('',*,*,#339,.T.);
#342=ORIENTED_EDGE('',*,*,#341,.T.);
#343=EDGE_LOOP('',(#340,#342));
#344=FACE_BOUND('',#343,.F.);
#346=CARTESIAN_POINT('',(-7.157686372846E0,4.E-1,-2.E0));
#347=DIRECTION('',(-1.E0,0.E0,0.E0));
#348=DIRECTION('',(0.E0,-1.E0,0.E0));
#349=AXIS2_PLACEMENT_3D('',#346,#347,#348);
#350=PLANE('',#349);
#351=ORIENTED_EDGE('',*,*,#288,.F.);
#353=ORIENTED_EDGE('',*,*,#352,.T.);
#355=ORIENTED_EDGE('',*,*,#354,.T.);
#356=ORIENTED_EDGE('',*,*,#332,.F.);
#357=EDGE_LOOP('',(#351,#353,#355,#356));
#358=FACE_OUTER_BOUND('',#357,.F.);
#360=CARTESIAN_POINT('',(-4.9E0,4.E-1,-2.E0));
#361=DIRECTION('',(0.E0,1.E0,0.E0));
#362=DIRECTION('',(-1.E0,0.E0,0.E0));
#363=AXIS2_PLACEMENT_3D('',#360,#361,#362);
#364=PLANE('',#363);
#365=ORIENTED_EDGE('',*,*,#286,.F.);
#367=ORIENTED_EDGE('',*,*,#366,.T.);
#369=ORIENTED_EDGE('',*,*,#368,.T.);
#370=ORIENTED_EDGE('',*,*,#352,.F.);
#371=EDGE_LOOP('',(#365,#367,#369,#370));
#372=FACE_OUTER_BOUND('',#371,.F.);
#374=CARTESIAN_POINT('',(-4.9E0,1.35E1,-2.E0));
#375=DIRECTION('',(-1.E0,0.E0,0.E0));
#376=DIRECTION('',(0.E0,-1.E0,0.E0));
#377=AXIS2_PLACEMENT_3D('',#374,#375,#376);
#378=PLANE('',#377);
#379=ORIENTED_EDGE('',*,*,#284,.F.);
#381=ORIENTED_EDGE('',*,*,#380,.T.);
#383=ORIENTED_EDGE('',*,*,#382,.T.);
#384=ORIENTED_EDGE('',*,*,#366,.F.);
#385=EDGE_LOOP('',(#379,#381,#383,#384));
#386=FACE_OUTER_BOUND('',#385,.F.);
#388=CARTESIAN_POINT('',(4.9E0,1.35E1,-2.E0));
#389=DIRECTION('',(0.E0,1.E0,0.E0));
#390=DIRECTION('',(-1.E0,0.E0,0.E0));
#391=AXIS2_PLACEMENT_3D('',#388,#389,#390);
#392=PLANE('',#391);
#393=ORIENTED_EDGE('',*,*,#282,.F.);
#395=ORIENTED_EDGE('',*,*,#394,.T.);
#397=ORIENTED_EDGE('',*,*,#396,.T.);
#398=ORIENTED_EDGE('',*,*,#380,.F.);
#399=EDGE_LOOP('',(#393,#395,#397,#398));
#400=FACE_OUTER_BOUND('',#399,.F.);
#402=CARTESIAN_POINT('',(4.9E0,4.E-1,-2.E0));
#403=DIRECTION('',(1.E0,0.E0,0.E0));
#404=DIRECTION('',(0.E0,1.E0,0.E0));
#405=AXIS2_PLACEMENT_3D('',#402,#403,#404);
#406=PLANE('',#405);
#407=ORIENTED_EDGE('',*,*,#280,.F.);
#409=ORIENTED_EDGE('',*,*,#408,.T.);
#411=ORIENTED_EDGE('',*,*,#410,.T.);
#412=ORIENTED_EDGE('',*,*,#394,.F.);
#413=EDGE_LOOP('',(#407,#409,#411,#412));
#414=FACE_OUTER_BOUND('',#413,.F.);
#416=CARTESIAN_POINT('',(7.157686372846E0,4.E-1,-2.E0));
#417=DIRECTION('',(0.E0,1.E0,0.E0));
#418=DIRECTION('',(-1.E0,0.E0,0.E0));
#419=AXIS2_PLACEMENT_3D('',#416,#417,#418);
#420=PLANE('',#419);
#421=ORIENTED_EDGE('',*,*,#278,.F.);
#423=ORIENTED_EDGE('',*,*,#422,.T.);
#425=ORIENTED_EDGE('',*,*,#424,.T.);
#426=ORIENTED_EDGE('',*,*,#408,.F.);
#427=EDGE_LOOP('',(#421,#423,#425,#426));
#428=FACE_OUTER_BOUND('',#427,.F.);
#430=CARTESIAN_POINT('',(7.157686372846E0,0.E0,-2.E0));
#431=DIRECTION('',(1.E0,0.E0,0.E0));
#432=DIRECTION('',(0.E0,1.E0,0.E0));
#433=AXIS2_PLACEMENT_3D('',#430,#431,#432);
#434=PLANE('',#433);
#435=ORIENTED_EDGE('',*,*,#276,.F.);
#437=ORIENTED_EDGE('',*,*,#436,.T.);
#439=ORIENTED_EDGE('',*,*,#438,.T.);
#440=ORIENTED_EDGE('',*,*,#422,.F.);
#441=EDGE_LOOP('',(#435,#437,#439,#440));
#442=FACE_OUTER_BOUND('',#441,.F.);
#444=CARTESIAN_POINT('',(4.5E0,0.E0,-2.E0));
#445=DIRECTION('',(0.E0,-1.E0,0.E0));
#446=DIRECTION('',(1.E0,0.E0,0.E0));
#447=AXIS2_PLACEMENT_3D('',#444,#445,#446);
#448=PLANE('',#447);
#449=ORIENTED_EDGE('',*,*,#274,.F.);
#451=ORIENTED_EDGE('',*,*,#450,.T.);
#453=ORIENTED_EDGE('',*,*,#452,.T.);
#454=ORIENTED_EDGE('',*,*,#436,.F.);
#455=EDGE_LOOP('',(#449,#451,#453,#454));
#456=FACE_OUTER_BOUND('',#455,.F.);
#458=ORIENTED_EDGE('',*,*,#457,.T.);
#460=ORIENTED_EDGE('',*,*,#459,.T.);
#461=EDGE_LOOP('',(#458,#460));
#462=FACE_BOUND('',#461,.F.);
#464=CARTESIAN_POINT('',(4.5E0,1.31E1,-2.E0));
#465=DIRECTION('',(-1.E0,0.E0,0.E0));
#466=DIRECTION('',(0.E0,-1.E0,0.E0));
#467=AXIS2_PLACEMENT_3D('',#464,#465,#466);
#468=PLANE('',#467);
#469=ORIENTED_EDGE('',*,*,#272,.F.);
#470=ORIENTED_EDGE('',*,*,#307,.T.);
#472=ORIENTED_EDGE('',*,*,#471,.T.);
#473=ORIENTED_EDGE('',*,*,#450,.F.);
#474=EDGE_LOOP('',(#469,#470,#472,#473));
#475=FACE_OUTER_BOUND('',#474,.F.);
#477=CARTESIAN_POINT('',(0.E0,0.E0,2.E0));
#478=DIRECTION('',(0.E0,0.E0,1.E0));
#479=DIRECTION('',(1.E0,0.E0,0.E0));
#480=AXIS2_PLACEMENT_3D('',#477,#478,#479);
#481=PLANE('',#480);
#482=ORIENTED_EDGE('',*,*,#305,.F.);
#483=ORIENTED_EDGE('',*,*,#320,.F.);
#484=ORIENTED_EDGE('',*,*,#334,.F.);
#485=ORIENTED_EDGE('',*,*,#354,.F.);
#486=ORIENTED_EDGE('',*,*,#368,.F.);
#487=ORIENTED_EDGE('',*,*,#382,.F.);
#488=ORIENTED_EDGE('',*,*,#396,.F.);
#489=ORIENTED_EDGE('',*,*,#410,.F.);
#490=ORIENTED_EDGE('',*,*,#424,.F.);
#491=ORIENTED_EDGE('',*,*,#438,.F.);
#492=ORIENTED_EDGE('',*,*,#452,.F.);
#493=ORIENTED_EDGE('',*,*,#471,.F.);
#494=EDGE_LOOP('',(#482,#483,#484,#485,#486,#487,#488,#489,#490,#491,#492,
#493));
#495=FACE_OUTER_BOUND('',#494,.F.);
#497=CARTESIAN_POINT('',(5.715E0,0.E0,0.E0));
#498=DIRECTION('',(0.E0,-1.E0,0.E0));
#499=DIRECTION('',(1.E0,0.E0,0.E0));
#500=AXIS2_PLACEMENT_3D('',#497,#498,#499);
#501=CYLINDRICAL_SURFACE('',#500,4.E-1);
#502=ORIENTED_EDGE('',*,*,#457,.F.);
#504=ORIENTED_EDGE('',*,*,#503,.T.);
#506=ORIENTED_EDGE('',*,*,#505,.T.);
#508=ORIENTED_EDGE('',*,*,#507,.F.);
#509=EDGE_LOOP('',(#502,#504,#506,#508));
#510=FACE_OUTER_BOUND('',#509,.F.);
#512=CARTESIAN_POINT('',(5.715E0,0.E0,0.E0));
#513=DIRECTION('',(0.E0,-1.E0,0.E0));
#514=DIRECTION('',(1.E0,0.E0,0.E0));
#515=AXIS2_PLACEMENT_3D('',#512,#513,#514);
#516=CYLINDRICAL_SURFACE('',#515,4.E-1);
#517=ORIENTED_EDGE('',*,*,#459,.F.);
#518=ORIENTED_EDGE('',*,*,#507,.T.);
#520=ORIENTED_EDGE('',*,*,#519,.T.);
#521=ORIENTED_EDGE('',*,*,#503,.F.);
#522=EDGE_LOOP('',(#517,#518,#520,#521));
#523=FACE_OUTER_BOUND('',#522,.F.);
#525=CARTESIAN_POINT('',(0.E0,-4.5E0,-2.E0));
#526=DIRECTION('',(0.E0,-1.E0,0.E0));
#527=DIRECTION('',(1.E0,0.E0,0.E0));
#528=AXIS2_PLACEMENT_3D('',#525,#526,#527);
#529=PLANE('',#528);
#530=ORIENTED_EDGE('',*,*,#505,.F.);
#531=ORIENTED_EDGE('',*,*,#519,.F.);
#532=EDGE_LOOP('',(#530,#531));
#533=FACE_OUTER_BOUND('',#532,.F.);
#535=CARTESIAN_POINT('',(0.E0,-4.5E0,-2.E0));
#536=DIRECTION('',(0.E0,-1.E0,0.E0));
#537=DIRECTION('',(1.E0,0.E0,0.E0));
#538=AXIS2_PLACEMENT_3D('',#535,#536,#537);
#539=PLANE('',#538);
#541=ORIENTED_EDGE('',*,*,#540,.F.);
#543=ORIENTED_EDGE('',*,*,#542,.F.);
#544=EDGE_LOOP('',(#541,#543));
#545=FACE_OUTER_BOUND('',#544,.F.);
#547=CARTESIAN_POINT('',(-5.715E0,0.E0,0.E0));
#548=DIRECTION('',(0.E0,-1.E0,0.E0));
#549=DIRECTION('',(1.E0,0.E0,0.E0));
#550=AXIS2_PLACEMENT_3D('',#547,#548,#549);
#551=CYLINDRICAL_SURFACE('',#550,4.E-1);
#552=ORIENTED_EDGE('',*,*,#339,.F.);
#554=ORIENTED_EDGE('',*,*,#553,.T.);
#555=ORIENTED_EDGE('',*,*,#540,.T.);
#557=ORIENTED_EDGE('',*,*,#556,.F.);
#558=EDGE_LOOP('',(#552,#554,#555,#557));
#559=FACE_OUTER_BOUND('',#558,.F.);
#561=CARTESIAN_POINT('',(-5.715E0,0.E0,0.E0));
#562=DIRECTION('',(0.E0,-1.E0,0.E0));
#563=DIRECTION('',(1.E0,0.E0,0.E0));
#564=AXIS2_PLACEMENT_3D('',#561,#562,#563);
#565=CYLINDRICAL_SURFACE('',#564,4.E-1);
#566=ORIENTED_EDGE('',*,*,#341,.F.);
#567=ORIENTED_EDGE('',*,*,#556,.T.);
#568=ORIENTED_EDGE('',*,*,#542,.T.);
#569=ORIENTED_EDGE('',*,*,#553,.F.);
#570=EDGE_LOOP('',(#566,#567,#568,#569));
#571=FACE_OUTER_BOUND('',#570,.F.);
#573=CLOSED_SHELL('',(#296,#311,#325,#345,#359,#373,#387,#401,#415,#429,#443,
#463,#476,#496,#511,#524,#534,#546,#560,#572));
#574=MANIFOLD_SOLID_BREP('',#573);
#576=DIMENSIONAL_EXPONENTS(0.E0,0.E0,0.E0,0.E0,0.E0,0.E0,0.E0);
#578=PLANE_ANGLE_MEASURE_WITH_UNIT(PLANE_ANGLE_MEASURE(1.745329251994E-2),#577);
#579=(CONVERSION_BASED_UNIT('DEGREE',#578)NAMED_UNIT(*)PLANE_ANGLE_UNIT());
#581=UNCERTAINTY_MEASURE_WITH_UNIT(LENGTH_MEASURE(9.726166590700E-4),#575,
'closure',
'Maximum model space distance between geometric entities at asserted connectivities');
#584=APPLICATION_CONTEXT(
'CONFIGURATION CONTROLLED 3D DESIGNS OF MECHANICAL PARTS AND ASSEMBLIES');
#585=APPLICATION_PROTOCOL_DEFINITION('international standard',
'config_control_design',1994,#584);
#586=DESIGN_CONTEXT('',#584,'design');
#587=MECHANICAL_CONTEXT('',#584,'mechanical');
#588=PRODUCT('PWR4413','PWR4413','NOT SPECIFIED',(#587));
#589=PRODUCT_DEFINITION_FORMATION_WITH_SPECIFIED_SOURCE('1','LAST_VERSION',#588,
.MADE.);
#593=PRODUCT_CATEGORY('part','');
#594=PRODUCT_RELATED_PRODUCT_CATEGORY('detail','',(#588));
#595=PRODUCT_CATEGORY_RELATIONSHIP('','',#593,#594);
#596=SECURITY_CLASSIFICATION_LEVEL('unclassified');
#597=SECURITY_CLASSIFICATION('','',#596);
#598=CC_DESIGN_SECURITY_CLASSIFICATION(#597,(#589));
#599=APPROVAL_STATUS('approved');
#600=APPROVAL(#599,'');
#601=CC_DESIGN_APPROVAL(#600,(#597,#589,#590));
#602=CALENDAR_DATE(112,27,8);
#603=COORDINATED_UNIVERSAL_TIME_OFFSET(7,0,.BEHIND.);
#604=LOCAL_TIME(10,1,1.6E1,#603);
#605=DATE_AND_TIME(#602,#604);
#606=APPROVAL_DATE_TIME(#605,#600);
#607=DATE_TIME_ROLE('creation_date');
#608=CC_DESIGN_DATE_AND_TIME_ASSIGNMENT(#605,#607,(#590));
#609=DATE_TIME_ROLE('classification_date');
#610=CC_DESIGN_DATE_AND_TIME_ASSIGNMENT(#605,#609,(#597));
#611=PERSON('UNSPECIFIED','UNSPECIFIED',$,$,$,$);
#612=ORGANIZATION('UNSPECIFIED','UNSPECIFIED','UNSPECIFIED');
#613=PERSON_AND_ORGANIZATION(#611,#612);
#614=APPROVAL_ROLE('approver');
#615=APPROVAL_PERSON_ORGANIZATION(#613,#600,#614);
#616=PERSON_AND_ORGANIZATION_ROLE('creator');
#617=CC_DESIGN_PERSON_AND_ORGANIZATION_ASSIGNMENT(#613,#616,(#589,#590));
#618=PERSON_AND_ORGANIZATION_ROLE('design_supplier');
#619=CC_DESIGN_PERSON_AND_ORGANIZATION_ASSIGNMENT(#613,#618,(#589));
#620=PERSON_AND_ORGANIZATION_ROLE('classification_officer');
#621=CC_DESIGN_PERSON_AND_ORGANIZATION_ASSIGNMENT(#613,#620,(#597));
#622=PERSON_AND_ORGANIZATION_ROLE('design_owner');
#623=CC_DESIGN_PERSON_AND_ORGANIZATION_ASSIGNMENT(#613,#622,(#588));
#65=CIRCLE('',#64,4.E-1);
#70=CIRCLE('',#69,4.E-1);
#107=CIRCLE('',#106,4.E-1);
#112=CIRCLE('',#111,4.E-1);
#177=CIRCLE('',#176,4.E-1);
#182=CIRCLE('',#181,4.E-1);
#187=CIRCLE('',#186,4.E-1);
#192=CIRCLE('',#191,4.E-1);
#270=EDGE_CURVE('',#203,#204,#4,.T.);
#272=EDGE_CURVE('',#204,#206,#8,.T.);
#274=EDGE_CURVE('',#206,#208,#12,.T.);
#276=EDGE_CURVE('',#208,#210,#16,.T.);
#278=EDGE_CURVE('',#210,#212,#20,.T.);
#280=EDGE_CURVE('',#212,#214,#24,.T.);
#282=EDGE_CURVE('',#214,#216,#28,.T.);
#284=EDGE_CURVE('',#216,#218,#32,.T.);
#286=EDGE_CURVE('',#218,#220,#36,.T.);
#288=EDGE_CURVE('',#220,#222,#40,.T.);
#290=EDGE_CURVE('',#222,#224,#44,.T.);
#292=EDGE_CURVE('',#224,#203,#48,.T.);
#296=ADVANCED_FACE('',(#295),#269,.F.);
#303=EDGE_CURVE('',#203,#227,#52,.T.);
#305=EDGE_CURVE('',#227,#228,#120,.T.);
#307=EDGE_CURVE('',#204,#228,#116,.T.);
#311=ADVANCED_FACE('',(#310),#301,.T.);
#318=EDGE_CURVE('',#224,#248,#56,.T.);
#320=EDGE_CURVE('',#248,#227,#124,.T.);
#325=ADVANCED_FACE('',(#324),#316,.T.);
#332=EDGE_CURVE('',#222,#246,#60,.T.);
#334=EDGE_CURVE('',#246,#248,#128,.T.);
#339=EDGE_CURVE('',#263,#264,#65,.T.);
#341=EDGE_CURVE('',#264,#263,#70,.T.);
#345=ADVANCED_FACE('',(#338,#344),#330,.T.);
#352=EDGE_CURVE('',#220,#244,#74,.T.);
#354=EDGE_CURVE('',#244,#246,#132,.T.);
#359=ADVANCED_FACE('',(#358),#350,.T.);
#366=EDGE_CURVE('',#218,#242,#78,.T.);
#368=EDGE_CURVE('',#242,#244,#136,.T.);
#373=ADVANCED_FACE('',(#372),#364,.T.);
#380=EDGE_CURVE('',#216,#240,#82,.T.);
#382=EDGE_CURVE('',#240,#242,#140,.T.);
#387=ADVANCED_FACE('',(#386),#378,.T.);
#394=EDGE_CURVE('',#214,#238,#86,.T.);
#396=EDGE_CURVE('',#238,#240,#144,.T.);
#401=ADVANCED_FACE('',(#400),#392,.T.);
#408=EDGE_CURVE('',#212,#236,#90,.T.);
#410=EDGE_CURVE('',#236,#238,#148,.T.);
#415=ADVANCED_FACE('',(#414),#406,.T.);
#422=EDGE_CURVE('',#210,#234,#94,.T.);
#424=EDGE_CURVE('',#234,#236,#152,.T.);
#429=ADVANCED_FACE('',(#428),#420,.T.);
#436=EDGE_CURVE('',#208,#232,#98,.T.);
#438=EDGE_CURVE('',#232,#234,#156,.T.);
#443=ADVANCED_FACE('',(#442),#434,.T.);
#450=EDGE_CURVE('',#206,#230,#102,.T.);
#452=EDGE_CURVE('',#230,#232,#160,.T.);
#457=EDGE_CURVE('',#259,#260,#107,.T.);
#459=EDGE_CURVE('',#260,#259,#112,.T.);
#463=ADVANCED_FACE('',(#456,#462),#448,.T.);
#471=EDGE_CURVE('',#228,#230,#164,.T.);
#476=ADVANCED_FACE('',(#475),#468,.T.);
#496=ADVANCED_FACE('',(#495),#481,.T.);
#503=EDGE_CURVE('',#259,#251,#168,.T.);
#505=EDGE_CURVE('',#251,#252,#177,.T.);
#507=EDGE_CURVE('',#260,#252,#172,.T.);
#511=ADVANCED_FACE('',(#510),#501,.T.);
#519=EDGE_CURVE('',#252,#251,#182,.T.);
#524=ADVANCED_FACE('',(#523),#516,.T.);
#534=ADVANCED_FACE('',(#533),#529,.T.);
#540=EDGE_CURVE('',#255,#256,#187,.T.);
#542=EDGE_CURVE('',#256,#255,#192,.T.);
#546=ADVANCED_FACE('',(#545),#539,.T.);
#553=EDGE_CURVE('',#263,#255,#196,.T.);
#556=EDGE_CURVE('',#264,#256,#200,.T.);
#560=ADVANCED_FACE('',(#559),#551,.T.);
#572=ADVANCED_FACE('',(#571),#565,.T.);
#575=(LENGTH_UNIT()NAMED_UNIT(*)SI_UNIT(.MILLI.,.METRE.));
#577=(NAMED_UNIT(*)PLANE_ANGLE_UNIT()SI_UNIT($,.RADIAN.));
#580=(NAMED_UNIT(*)SI_UNIT($,.STERADIAN.)SOLID_ANGLE_UNIT());
#582=(GEOMETRIC_REPRESENTATION_CONTEXT(3)GLOBAL_UNCERTAINTY_ASSIGNED_CONTEXT((
#581))GLOBAL_UNIT_ASSIGNED_CONTEXT((#575,#579,#580))REPRESENTATION_CONTEXT
('ID1','3'));
#583=ADVANCED_BREP_SHAPE_REPRESENTATION('',(#574),#582);
#590=PRODUCT_DEFINITION('design','',#589,#586);
#591=PRODUCT_DEFINITION_SHAPE('','SHAPE FOR PWR4413.',#590);
#592=SHAPE_DEFINITION_REPRESENTATION(#591,#583);
ENDSEC;
END-ISO-10303-21;
