ISO-10303-21;
HEADER;
FILE_DESCRIPTION((''),'2;1');
FILE_NAME('PWR4522','2012-08-17T',('ryans'),('Bourns, Inc.'),
'PRO/ENGINEER BY PARAMETRIC TECHNOLOGY CORPORATION, 2010100',
'PRO/ENGINEER BY PARAMETRIC TECHNOLOGY CORPORATION, 2010100','');
FILE_SCHEMA(('CONFIG_CONTROL_DESIGN'));
ENDSEC;
DATA;
#1=CARTESIAN_POINT('',(-5.75E0,0.E0,0.E0));
#2=DIRECTION('',(1.E0,0.E0,0.E0));
#3=DIRECTION('',(0.E0,-1.E0,0.E0));
#4=AXIS2_PLACEMENT_3D('',#1,#2,#3);
#6=CARTESIAN_POINT('',(-5.75E0,0.E0,0.E0));
#7=DIRECTION('',(1.E0,0.E0,0.E0));
#8=DIRECTION('',(0.E0,1.E0,0.E0));
#9=AXIS2_PLACEMENT_3D('',#6,#7,#8);
#11=CARTESIAN_POINT('',(-5.75E0,0.E0,0.E0));
#12=DIRECTION('',(-1.E0,0.E0,0.E0));
#13=DIRECTION('',(0.E0,-1.E0,0.E0));
#14=AXIS2_PLACEMENT_3D('',#11,#12,#13);
#16=CARTESIAN_POINT('',(-5.75E0,0.E0,0.E0));
#17=DIRECTION('',(-1.E0,0.E0,0.E0));
#18=DIRECTION('',(0.E0,1.E0,0.E0));
#19=AXIS2_PLACEMENT_3D('',#16,#17,#18);
#21=DIRECTION('',(1.E0,0.E0,0.E0));
#22=VECTOR('',#21,3.8E1);
#23=CARTESIAN_POINT('',(-4.375E1,-4.E-1,0.E0));
#24=LINE('',#23,#22);
#25=DIRECTION('',(1.E0,0.E0,0.E0));
#26=VECTOR('',#25,3.8E1);
#27=CARTESIAN_POINT('',(5.75E0,-4.E-1,0.E0));
#28=LINE('',#27,#26);
#29=DIRECTION('',(1.E0,0.E0,0.E0));
#30=VECTOR('',#29,3.8E1);
#31=CARTESIAN_POINT('',(-4.375E1,4.E-1,0.E0));
#32=LINE('',#31,#30);
#33=DIRECTION('',(1.E0,0.E0,0.E0));
#34=VECTOR('',#33,3.8E1);
#35=CARTESIAN_POINT('',(5.75E0,4.E-1,0.E0));
#36=LINE('',#35,#34);
#37=CARTESIAN_POINT('',(-4.375E1,0.E0,0.E0));
#38=DIRECTION('',(1.E0,0.E0,0.E0));
#39=DIRECTION('',(0.E0,-1.E0,0.E0));
#40=AXIS2_PLACEMENT_3D('',#37,#38,#39);
#42=CARTESIAN_POINT('',(-4.375E1,0.E0,0.E0));
#43=DIRECTION('',(1.E0,0.E0,0.E0));
#44=DIRECTION('',(0.E0,1.E0,0.E0));
#45=AXIS2_PLACEMENT_3D('',#42,#43,#44);
#47=CARTESIAN_POINT('',(5.75E0,0.E0,0.E0));
#48=DIRECTION('',(1.E0,0.E0,0.E0));
#49=DIRECTION('',(0.E0,-1.E0,0.E0));
#50=AXIS2_PLACEMENT_3D('',#47,#48,#49);
#52=CARTESIAN_POINT('',(5.75E0,0.E0,0.E0));
#53=DIRECTION('',(1.E0,0.E0,0.E0));
#54=DIRECTION('',(0.E0,1.E0,0.E0));
#55=AXIS2_PLACEMENT_3D('',#52,#53,#54);
#57=CARTESIAN_POINT('',(5.75E0,0.E0,0.E0));
#58=DIRECTION('',(1.E0,0.E0,0.E0));
#59=DIRECTION('',(0.E0,1.E0,0.E0));
#60=AXIS2_PLACEMENT_3D('',#57,#58,#59);
#62=CARTESIAN_POINT('',(5.75E0,0.E0,0.E0));
#63=DIRECTION('',(1.E0,0.E0,0.E0));
#64=DIRECTION('',(0.E0,-1.E0,0.E0));
#65=AXIS2_PLACEMENT_3D('',#62,#63,#64);
#67=CARTESIAN_POINT('',(5.25E0,2.25E0,0.E0));
#68=DIRECTION('',(0.E0,0.E0,1.E0));
#69=DIRECTION('',(1.E0,0.E0,0.E0));
#70=AXIS2_PLACEMENT_3D('',#67,#68,#69);
#72=CARTESIAN_POINT('',(5.25E0,-2.25E0,0.E0));
#73=DIRECTION('',(0.E0,0.E0,-1.E0));
#74=DIRECTION('',(1.E0,0.E0,0.E0));
#75=AXIS2_PLACEMENT_3D('',#72,#73,#74);
#77=CARTESIAN_POINT('',(5.25E0,0.E0,0.E0));
#78=DIRECTION('',(1.E0,0.E0,0.E0));
#79=DIRECTION('',(0.E0,-1.E0,0.E0));
#80=AXIS2_PLACEMENT_3D('',#77,#78,#79);
#82=CARTESIAN_POINT('',(-5.25E0,0.E0,0.E0));
#83=DIRECTION('',(-1.E0,0.E0,0.E0));
#84=DIRECTION('',(0.E0,1.E0,0.E0));
#85=AXIS2_PLACEMENT_3D('',#82,#83,#84);
#87=DIRECTION('',(1.E0,0.E0,2.013669323879E-11));
#88=VECTOR('',#87,1.05E1);
#89=CARTESIAN_POINT('',(-5.25E0,-2.75E0,-1.593157175551E-10));
#90=LINE('',#89,#88);
#91=CARTESIAN_POINT('',(5.25E0,0.E0,0.E0));
#92=DIRECTION('',(1.E0,0.E0,0.E0));
#93=DIRECTION('',(0.E0,1.E0,0.E0));
#94=AXIS2_PLACEMENT_3D('',#91,#92,#93);
#96=CARTESIAN_POINT('',(-5.25E0,0.E0,0.E0));
#97=DIRECTION('',(-1.E0,0.E0,0.E0));
#98=DIRECTION('',(0.E0,-1.E0,0.E0));
#99=AXIS2_PLACEMENT_3D('',#96,#97,#98);
#101=DIRECTION('',(1.E0,0.E0,-2.013675238460E-11));
#102=VECTOR('',#101,1.05E1);
#103=CARTESIAN_POINT('',(-5.25E0,2.75E0,1.593161174693E-10));
#104=LINE('',#103,#102);
#105=CARTESIAN_POINT('',(-5.25E0,-2.25E0,0.E0));
#106=DIRECTION('',(0.E0,0.E0,1.E0));
#107=DIRECTION('',(-1.E0,0.E0,0.E0));
#108=AXIS2_PLACEMENT_3D('',#105,#106,#107);
#110=CARTESIAN_POINT('',(-5.25E0,2.25E0,0.E0));
#111=DIRECTION('',(0.E0,0.E0,-1.E0));
#112=DIRECTION('',(-1.E0,0.E0,0.E0));
#113=AXIS2_PLACEMENT_3D('',#110,#111,#112);
#115=CARTESIAN_POINT('',(4.375E1,0.E0,0.E0));
#116=DIRECTION('',(1.E0,0.E0,0.E0));
#117=DIRECTION('',(0.E0,-1.E0,0.E0));
#118=AXIS2_PLACEMENT_3D('',#115,#116,#117);
#120=CARTESIAN_POINT('',(4.375E1,0.E0,0.E0));
#121=DIRECTION('',(1.E0,0.E0,0.E0));
#122=DIRECTION('',(0.E0,1.E0,0.E0));
#123=AXIS2_PLACEMENT_3D('',#120,#121,#122);
#125=CARTESIAN_POINT('',(-4.375E1,-4.E-1,0.E0));
#126=CARTESIAN_POINT('',(-4.375E1,4.E-1,0.E0));
#127=VERTEX_POINT('',#125);
#128=VERTEX_POINT('',#126);
#129=CARTESIAN_POINT('',(4.375E1,-4.E-1,0.E0));
#130=CARTESIAN_POINT('',(4.375E1,4.E-1,0.E0));
#131=VERTEX_POINT('',#129);
#132=VERTEX_POINT('',#130);
#133=CARTESIAN_POINT('',(-5.75E0,-4.E-1,0.E0));
#134=CARTESIAN_POINT('',(-5.75E0,4.E-1,0.E0));
#135=VERTEX_POINT('',#133);
#136=VERTEX_POINT('',#134);
#137=CARTESIAN_POINT('',(5.75E0,-4.E-1,0.E0));
#138=CARTESIAN_POINT('',(5.75E0,4.E-1,0.E0));
#139=VERTEX_POINT('',#137);
#140=VERTEX_POINT('',#138);
#141=CARTESIAN_POINT('',(5.75E0,2.25E0,0.E0));
#142=CARTESIAN_POINT('',(5.75E0,-2.25E0,0.E0));
#143=VERTEX_POINT('',#141);
#144=VERTEX_POINT('',#142);
#145=CARTESIAN_POINT('',(5.25E0,2.75E0,0.E0));
#146=CARTESIAN_POINT('',(5.25E0,-2.75E0,0.E0));
#147=VERTEX_POINT('',#145);
#148=VERTEX_POINT('',#146);
#149=CARTESIAN_POINT('',(-5.75E0,-2.25E0,0.E0));
#150=CARTESIAN_POINT('',(-5.75E0,2.25E0,0.E0));
#151=VERTEX_POINT('',#149);
#152=VERTEX_POINT('',#150);
#153=CARTESIAN_POINT('',(-5.25E0,-2.75E0,0.E0));
#154=CARTESIAN_POINT('',(-5.25E0,2.75E0,0.E0));
#155=VERTEX_POINT('',#153);
#156=VERTEX_POINT('',#154);
#157=CARTESIAN_POINT('',(-5.75E0,0.E0,0.E0));
#158=DIRECTION('',(1.E0,0.E0,0.E0));
#159=DIRECTION('',(0.E0,-1.E0,0.E0));
#160=AXIS2_PLACEMENT_3D('',#157,#158,#159);
#161=PLANE('',#160);
#163=ORIENTED_EDGE('',*,*,#162,.F.);
#165=ORIENTED_EDGE('',*,*,#164,.F.);
#166=EDGE_LOOP('',(#163,#165));
#167=FACE_OUTER_BOUND('',#166,.F.);
#169=ORIENTED_EDGE('',*,*,#168,.F.);
#171=ORIENTED_EDGE('',*,*,#170,.F.);
#172=EDGE_LOOP('',(#169,#171));
#173=FACE_BOUND('',#172,.F.);
#175=CARTESIAN_POINT('',(-4.375E1,0.E0,0.E0));
#176=DIRECTION('',(1.E0,0.E0,0.E0));
#177=DIRECTION('',(0.E0,-1.E0,0.E0));
#178=AXIS2_PLACEMENT_3D('',#175,#176,#177);
#179=CYLINDRICAL_SURFACE('',#178,4.E-1);
#180=ORIENTED_EDGE('',*,*,#168,.T.);
#182=ORIENTED_EDGE('',*,*,#181,.F.);
#184=ORIENTED_EDGE('',*,*,#183,.F.);
#186=ORIENTED_EDGE('',*,*,#185,.T.);
#187=EDGE_LOOP('',(#180,#182,#184,#186));
#188=FACE_OUTER_BOUND('',#187,.F.);
#190=CARTESIAN_POINT('',(-4.375E1,0.E0,0.E0));
#191=DIRECTION('',(1.E0,0.E0,0.E0));
#192=DIRECTION('',(0.E0,-1.E0,0.E0));
#193=AXIS2_PLACEMENT_3D('',#190,#191,#192);
#194=CYLINDRICAL_SURFACE('',#193,4.E-1);
#196=ORIENTED_EDGE('',*,*,#195,.F.);
#198=ORIENTED_EDGE('',*,*,#197,.T.);
#200=ORIENTED_EDGE('',*,*,#199,.T.);
#202=ORIENTED_EDGE('',*,*,#201,.F.);
#203=EDGE_LOOP('',(#196,#198,#200,#202));
#204=FACE_OUTER_BOUND('',#203,.F.);
#206=CARTESIAN_POINT('',(-4.375E1,0.E0,0.E0));
#207=DIRECTION('',(1.E0,0.E0,0.E0));
#208=DIRECTION('',(0.E0,-1.E0,0.E0));
#209=AXIS2_PLACEMENT_3D('',#206,#207,#208);
#210=CYLINDRICAL_SURFACE('',#209,4.E-1);
#211=ORIENTED_EDGE('',*,*,#170,.T.);
#212=ORIENTED_EDGE('',*,*,#185,.F.);
#214=ORIENTED_EDGE('',*,*,#213,.F.);
#215=ORIENTED_EDGE('',*,*,#181,.T.);
#216=EDGE_LOOP('',(#211,#212,#214,#215));
#217=FACE_OUTER_BOUND('',#216,.F.);
#219=CARTESIAN_POINT('',(-4.375E1,0.E0,0.E0));
#220=DIRECTION('',(1.E0,0.E0,0.E0));
#221=DIRECTION('',(0.E0,-1.E0,0.E0));
#222=AXIS2_PLACEMENT_3D('',#219,#220,#221);
#223=CYLINDRICAL_SURFACE('',#222,4.E-1);
#225=ORIENTED_EDGE('',*,*,#224,.F.);
#226=ORIENTED_EDGE('',*,*,#201,.T.);
#228=ORIENTED_EDGE('',*,*,#227,.T.);
#229=ORIENTED_EDGE('',*,*,#197,.F.);
#230=EDGE_LOOP('',(#225,#226,#228,#229));
#231=FACE_OUTER_BOUND('',#230,.F.);
#233=CARTESIAN_POINT('',(-4.375E1,0.E0,0.E0));
#234=DIRECTION('',(1.E0,0.E0,0.E0));
#235=DIRECTION('',(0.E0,-1.E0,0.E0));
#236=AXIS2_PLACEMENT_3D('',#233,#234,#235);
#237=PLANE('',#236);
#238=ORIENTED_EDGE('',*,*,#183,.T.);
#239=ORIENTED_EDGE('',*,*,#213,.T.);
#240=EDGE_LOOP('',(#238,#239));
#241=FACE_OUTER_BOUND('',#240,.F.);
#243=CARTESIAN_POINT('',(5.75E0,0.E0,0.E0));
#244=DIRECTION('',(1.E0,0.E0,0.E0));
#245=DIRECTION('',(0.E0,-1.E0,0.E0));
#246=AXIS2_PLACEMENT_3D('',#243,#244,#245);
#247=PLANE('',#246);
#249=ORIENTED_EDGE('',*,*,#248,.F.);
#251=ORIENTED_EDGE('',*,*,#250,.F.);
#252=EDGE_LOOP('',(#249,#251));
#253=FACE_OUTER_BOUND('',#252,.F.);
#254=ORIENTED_EDGE('',*,*,#195,.T.);
#255=ORIENTED_EDGE('',*,*,#224,.T.);
#256=EDGE_LOOP('',(#254,#255));
#257=FACE_BOUND('',#256,.F.);
#259=CARTESIAN_POINT('',(5.25E0,0.E0,0.E0));
#260=DIRECTION('',(1.E0,0.E0,0.E0));
#261=DIRECTION('',(0.E0,9.997905888791E-1,-2.046407556621E-2));
#262=AXIS2_PLACEMENT_3D('',#259,#260,#261);
#263=TOROIDAL_SURFACE('',#262,2.25E0,5.E-1);
#264=ORIENTED_EDGE('',*,*,#248,.T.);
#266=ORIENTED_EDGE('',*,*,#265,.T.);
#268=ORIENTED_EDGE('',*,*,#267,.F.);
#270=ORIENTED_EDGE('',*,*,#269,.F.);
#271=EDGE_LOOP('',(#264,#266,#268,#270));
#272=FACE_OUTER_BOUND('',#271,.F.);
#274=CARTESIAN_POINT('',(5.25E0,0.E0,0.E0));
#275=DIRECTION('',(1.E0,0.E0,0.E0));
#276=DIRECTION('',(0.E0,-9.997905888791E-1,2.046407556620E-2));
#277=AXIS2_PLACEMENT_3D('',#274,#275,#276);
#278=TOROIDAL_SURFACE('',#277,2.25E0,5.E-1);
#279=ORIENTED_EDGE('',*,*,#250,.T.);
#280=ORIENTED_EDGE('',*,*,#269,.T.);
#282=ORIENTED_EDGE('',*,*,#281,.F.);
#283=ORIENTED_EDGE('',*,*,#265,.F.);
#284=EDGE_LOOP('',(#279,#280,#282,#283));
#285=FACE_OUTER_BOUND('',#284,.F.);
#287=CARTESIAN_POINT('',(-5.75E0,0.E0,0.E0));
#288=DIRECTION('',(1.E0,0.E0,0.E0));
#289=DIRECTION('',(0.E0,-1.E0,0.E0));
#290=AXIS2_PLACEMENT_3D('',#287,#288,#289);
#291=CYLINDRICAL_SURFACE('',#290,2.75E0);
#292=ORIENTED_EDGE('',*,*,#281,.T.);
#294=ORIENTED_EDGE('',*,*,#293,.F.);
#296=ORIENTED_EDGE('',*,*,#295,.T.);
#298=ORIENTED_EDGE('',*,*,#297,.T.);
#299=EDGE_LOOP('',(#292,#294,#296,#298));
#300=FACE_OUTER_BOUND('',#299,.F.);
#302=CARTESIAN_POINT('',(-5.75E0,0.E0,0.E0));
#303=DIRECTION('',(1.E0,0.E0,0.E0));
#304=DIRECTION('',(0.E0,-1.E0,0.E0));
#305=AXIS2_PLACEMENT_3D('',#302,#303,#304);
#306=CYLINDRICAL_SURFACE('',#305,2.75E0);
#307=ORIENTED_EDGE('',*,*,#267,.T.);
#308=ORIENTED_EDGE('',*,*,#297,.F.);
#310=ORIENTED_EDGE('',*,*,#309,.T.);
#311=ORIENTED_EDGE('',*,*,#293,.T.);
#312=EDGE_LOOP('',(#307,#308,#310,#311));
#313=FACE_OUTER_BOUND('',#312,.F.);
#315=CARTESIAN_POINT('',(-5.25E0,0.E0,0.E0));
#316=DIRECTION('',(1.E0,0.E0,0.E0));
#317=DIRECTION('',(0.E0,-9.995774279100E-1,-2.906829222287E-2));
#318=AXIS2_PLACEMENT_3D('',#315,#316,#317);
#319=TOROIDAL_SURFACE('',#318,2.25E0,5.E-1);
#320=ORIENTED_EDGE('',*,*,#162,.T.);
#322=ORIENTED_EDGE('',*,*,#321,.T.);
#323=ORIENTED_EDGE('',*,*,#309,.F.);
#325=ORIENTED_EDGE('',*,*,#324,.F.);
#326=EDGE_LOOP('',(#320,#322,#323,#325));
#327=FACE_OUTER_BOUND('',#326,.F.);
#329=CARTESIAN_POINT('',(-5.25E0,0.E0,0.E0));
#330=DIRECTION('',(1.E0,0.E0,0.E0));
#331=DIRECTION('',(0.E0,9.995774279100E-1,2.906829222287E-2));
#332=AXIS2_PLACEMENT_3D('',#329,#330,#331);
#333=TOROIDAL_SURFACE('',#332,2.25E0,5.E-1);
#334=ORIENTED_EDGE('',*,*,#164,.T.);
#335=ORIENTED_EDGE('',*,*,#324,.T.);
#336=ORIENTED_EDGE('',*,*,#295,.F.);
#337=ORIENTED_EDGE('',*,*,#321,.F.);
#338=EDGE_LOOP('',(#334,#335,#336,#337));
#339=FACE_OUTER_BOUND('',#338,.F.);
#341=CARTESIAN_POINT('',(4.375E1,0.E0,0.E0));
#342=DIRECTION('',(1.E0,0.E0,0.E0));
#343=DIRECTION('',(0.E0,-1.E0,0.E0));
#344=AXIS2_PLACEMENT_3D('',#341,#342,#343);
#345=PLANE('',#344);
#346=ORIENTED_EDGE('',*,*,#199,.F.);
#347=ORIENTED_EDGE('',*,*,#227,.F.);
#348=EDGE_LOOP('',(#346,#347));
#349=FACE_OUTER_BOUND('',#348,.F.);
#351=CLOSED_SHELL('',(#174,#189,#205,#218,#232,#242,#258,#273,#286,#301,#314,
#328,#340,#350));
#352=MANIFOLD_SOLID_BREP('',#351);
#354=DIMENSIONAL_EXPONENTS(0.E0,0.E0,0.E0,0.E0,0.E0,0.E0,0.E0);
#356=PLANE_ANGLE_MEASURE_WITH_UNIT(PLANE_ANGLE_MEASURE(1.745329251994E-2),#355);
#357=(CONVERSION_BASED_UNIT('DEGREE',#356)NAMED_UNIT(*)PLANE_ANGLE_UNIT());
#359=UNCERTAINTY_MEASURE_WITH_UNIT(LENGTH_MEASURE(3.660068182201E-3),#353,
'closure',
'Maximum model space distance between geometric entities at asserted connectivities');
#362=APPLICATION_CONTEXT(
'CONFIGURATION CONTROLLED 3D DESIGNS OF MECHANICAL PARTS AND ASSEMBLIES');
#363=APPLICATION_PROTOCOL_DEFINITION('international standard',
'config_control_design',1994,#362);
#364=DESIGN_CONTEXT('',#362,'design');
#365=MECHANICAL_CONTEXT('',#362,'mechanical');
#366=PRODUCT('PWR4522','PWR4522','NOT SPECIFIED',(#365));
#367=PRODUCT_DEFINITION_FORMATION_WITH_SPECIFIED_SOURCE('1','LAST_VERSION',#366,
.MADE.);
#371=PRODUCT_CATEGORY('part','');
#372=PRODUCT_RELATED_PRODUCT_CATEGORY('detail','',(#366));
#373=PRODUCT_CATEGORY_RELATIONSHIP('','',#371,#372);
#374=SECURITY_CLASSIFICATION_LEVEL('unclassified');
#375=SECURITY_CLASSIFICATION('','',#374);
#376=CC_DESIGN_SECURITY_CLASSIFICATION(#375,(#367));
#377=APPROVAL_STATUS('approved');
#378=APPROVAL(#377,'');
#379=CC_DESIGN_APPROVAL(#378,(#375,#367,#368));
#380=CALENDAR_DATE(112,17,8);
#381=COORDINATED_UNIVERSAL_TIME_OFFSET(7,0,.BEHIND.);
#382=LOCAL_TIME(15,10,2.3E1,#381);
#383=DATE_AND_TIME(#380,#382);
#384=APPROVAL_DATE_TIME(#383,#378);
#385=DATE_TIME_ROLE('creation_date');
#386=CC_DESIGN_DATE_AND_TIME_ASSIGNMENT(#383,#385,(#368));
#387=DATE_TIME_ROLE('classification_date');
#388=CC_DESIGN_DATE_AND_TIME_ASSIGNMENT(#383,#387,(#375));
#389=PERSON('UNSPECIFIED','UNSPECIFIED',$,$,$,$);
#390=ORGANIZATION('UNSPECIFIED','UNSPECIFIED','UNSPECIFIED');
#391=PERSON_AND_ORGANIZATION(#389,#390);
#392=APPROVAL_ROLE('approver');
#393=APPROVAL_PERSON_ORGANIZATION(#391,#378,#392);
#394=PERSON_AND_ORGANIZATION_ROLE('creator');
#395=CC_DESIGN_PERSON_AND_ORGANIZATION_ASSIGNMENT(#391,#394,(#367,#368));
#396=PERSON_AND_ORGANIZATION_ROLE('design_supplier');
#397=CC_DESIGN_PERSON_AND_ORGANIZATION_ASSIGNMENT(#391,#396,(#367));
#398=PERSON_AND_ORGANIZATION_ROLE('classification_officer');
#399=CC_DESIGN_PERSON_AND_ORGANIZATION_ASSIGNMENT(#391,#398,(#375));
#400=PERSON_AND_ORGANIZATION_ROLE('design_owner');
#401=CC_DESIGN_PERSON_AND_ORGANIZATION_ASSIGNMENT(#391,#400,(#366));
#5=CIRCLE('',#4,4.E-1);
#10=CIRCLE('',#9,4.E-1);
#15=CIRCLE('',#14,2.25E0);
#20=CIRCLE('',#19,2.25E0);
#41=CIRCLE('',#40,4.E-1);
#46=CIRCLE('',#45,4.E-1);
#51=CIRCLE('',#50,4.E-1);
#56=CIRCLE('',#55,4.E-1);
#61=CIRCLE('',#60,2.25E0);
#66=CIRCLE('',#65,2.25E0);
#71=CIRCLE('',#70,5.E-1);
#76=CIRCLE('',#75,5.E-1);
#81=CIRCLE('',#80,2.75E0);
#86=CIRCLE('',#85,2.75E0);
#95=CIRCLE('',#94,2.75E0);
#100=CIRCLE('',#99,2.75E0);
#109=CIRCLE('',#108,5.E-1);
#114=CIRCLE('',#113,5.E-1);
#119=CIRCLE('',#118,4.E-1);
#124=CIRCLE('',#123,4.E-1);
#162=EDGE_CURVE('',#151,#152,#15,.T.);
#164=EDGE_CURVE('',#152,#151,#20,.T.);
#168=EDGE_CURVE('',#135,#136,#5,.T.);
#170=EDGE_CURVE('',#136,#135,#10,.T.);
#174=ADVANCED_FACE('',(#167,#173),#161,.F.);
#181=EDGE_CURVE('',#128,#136,#32,.T.);
#183=EDGE_CURVE('',#127,#128,#41,.T.);
#185=EDGE_CURVE('',#127,#135,#24,.T.);
#189=ADVANCED_FACE('',(#188),#179,.T.);
#195=EDGE_CURVE('',#139,#140,#51,.T.);
#197=EDGE_CURVE('',#139,#131,#28,.T.);
#199=EDGE_CURVE('',#131,#132,#119,.T.);
#201=EDGE_CURVE('',#140,#132,#36,.T.);
#205=ADVANCED_FACE('',(#204),#194,.T.);
#213=EDGE_CURVE('',#128,#127,#46,.T.);
#218=ADVANCED_FACE('',(#217),#210,.T.);
#224=EDGE_CURVE('',#140,#139,#56,.T.);
#227=EDGE_CURVE('',#132,#131,#124,.T.);
#232=ADVANCED_FACE('',(#231),#223,.T.);
#242=ADVANCED_FACE('',(#241),#237,.F.);
#248=EDGE_CURVE('',#143,#144,#61,.T.);
#250=EDGE_CURVE('',#144,#143,#66,.T.);
#258=ADVANCED_FACE('',(#253,#257),#247,.T.);
#265=EDGE_CURVE('',#144,#148,#76,.T.);
#267=EDGE_CURVE('',#147,#148,#95,.T.);
#269=EDGE_CURVE('',#143,#147,#71,.T.);
#273=ADVANCED_FACE('',(#272),#263,.T.);
#281=EDGE_CURVE('',#148,#147,#81,.T.);
#286=ADVANCED_FACE('',(#285),#278,.T.);
#293=EDGE_CURVE('',#156,#147,#104,.T.);
#295=EDGE_CURVE('',#156,#155,#86,.T.);
#297=EDGE_CURVE('',#155,#148,#90,.T.);
#301=ADVANCED_FACE('',(#300),#291,.T.);
#309=EDGE_CURVE('',#155,#156,#100,.T.);
#314=ADVANCED_FACE('',(#313),#306,.T.);
#321=EDGE_CURVE('',#152,#156,#114,.T.);
#324=EDGE_CURVE('',#151,#155,#109,.T.);
#328=ADVANCED_FACE('',(#327),#319,.T.);
#340=ADVANCED_FACE('',(#339),#333,.T.);
#350=ADVANCED_FACE('',(#349),#345,.T.);
#353=(LENGTH_UNIT()NAMED_UNIT(*)SI_UNIT(.MILLI.,.METRE.));
#355=(NAMED_UNIT(*)PLANE_ANGLE_UNIT()SI_UNIT($,.RADIAN.));
#358=(NAMED_UNIT(*)SI_UNIT($,.STERADIAN.)SOLID_ANGLE_UNIT());
#360=(GEOMETRIC_REPRESENTATION_CONTEXT(3)GLOBAL_UNCERTAINTY_ASSIGNED_CONTEXT((
#359))GLOBAL_UNIT_ASSIGNED_CONTEXT((#353,#357,#358))REPRESENTATION_CONTEXT
('ID1','3'));
#361=ADVANCED_BREP_SHAPE_REPRESENTATION('',(#352),#360);
#368=PRODUCT_DEFINITION('design','',#367,#364);
#369=PRODUCT_DEFINITION_SHAPE('','SHAPE FOR PWR4522.',#368);
#370=SHAPE_DEFINITION_REPRESENTATION(#369,#361);
ENDSEC;
END-ISO-10303-21;
