ISO-10303-21;
HEADER;
FILE_DESCRIPTION((''),'2;1');
FILE_NAME('SRN2010TA','2016-05-24T',('brandonc'),('Bourns, Inc.'),
'CREO PARAMETRIC BY PTC INC, 2016050','CREO PARAMETRIC BY PTC INC, 2016050','');
FILE_SCHEMA(('CONFIG_CONTROL_DESIGN'));
ENDSEC;
DATA;
#1=DIRECTION('',(0.E0,0.E0,1.E0));
#2=VECTOR('',#1,6.3E-2);
#3=CARTESIAN_POINT('',(-3.95E-2,0.E0,-3.15E-2));
#4=LINE('',#3,#2);
#5=DIRECTION('',(1.E0,0.E0,0.E0));
#6=VECTOR('',#5,7.9E-2);
#7=CARTESIAN_POINT('',(-3.95E-2,0.E0,3.15E-2));
#8=LINE('',#7,#6);
#9=DIRECTION('',(0.E0,0.E0,-1.E0));
#10=VECTOR('',#9,6.3E-2);
#11=CARTESIAN_POINT('',(3.95E-2,0.E0,3.15E-2));
#12=LINE('',#11,#10);
#13=DIRECTION('',(-1.E0,0.E0,0.E0));
#14=VECTOR('',#13,7.9E-2);
#15=CARTESIAN_POINT('',(3.95E-2,0.E0,-3.15E-2));
#16=LINE('',#15,#14);
#17=DIRECTION('',(0.E0,0.E0,-1.E0));
#18=VECTOR('',#17,6.E-2);
#19=CARTESIAN_POINT('',(1.4E-2,0.E0,3.E-2));
#20=LINE('',#19,#18);
#21=DIRECTION('',(1.E0,0.E0,0.E0));
#22=VECTOR('',#21,2.4E-2);
#23=CARTESIAN_POINT('',(1.4E-2,0.E0,-3.E-2));
#24=LINE('',#23,#22);
#25=DIRECTION('',(0.E0,0.E0,1.E0));
#26=VECTOR('',#25,6.E-2);
#27=CARTESIAN_POINT('',(3.8E-2,0.E0,-3.E-2));
#28=LINE('',#27,#26);
#29=DIRECTION('',(-1.E0,0.E0,0.E0));
#30=VECTOR('',#29,2.4E-2);
#31=CARTESIAN_POINT('',(3.8E-2,0.E0,3.E-2));
#32=LINE('',#31,#30);
#33=DIRECTION('',(-1.E0,0.E0,0.E0));
#34=VECTOR('',#33,2.4E-2);
#35=CARTESIAN_POINT('',(-1.399999999999E-2,0.E0,3.E-2));
#36=LINE('',#35,#34);
#37=DIRECTION('',(0.E0,0.E0,-1.E0));
#38=VECTOR('',#37,6.E-2);
#39=CARTESIAN_POINT('',(-3.799999999999E-2,0.E0,3.E-2));
#40=LINE('',#39,#38);
#41=DIRECTION('',(1.E0,0.E0,0.E0));
#42=VECTOR('',#41,2.4E-2);
#43=CARTESIAN_POINT('',(-3.799999999999E-2,0.E0,-3.E-2));
#44=LINE('',#43,#42);
#45=DIRECTION('',(0.E0,0.E0,1.E0));
#46=VECTOR('',#45,6.E-2);
#47=CARTESIAN_POINT('',(-1.399999999999E-2,0.E0,-3.E-2));
#48=LINE('',#47,#46);
#49=DIRECTION('',(0.E0,1.E0,0.E0));
#50=VECTOR('',#49,3.4E-2);
#51=CARTESIAN_POINT('',(-3.95E-2,0.E0,-3.15E-2));
#52=LINE('',#51,#50);
#53=DIRECTION('',(0.E0,1.E0,0.E0));
#54=VECTOR('',#53,3.4E-2);
#55=CARTESIAN_POINT('',(3.95E-2,0.E0,-3.15E-2));
#56=LINE('',#55,#54);
#57=DIRECTION('',(0.E0,1.E0,0.E0));
#58=VECTOR('',#57,3.4E-2);
#59=CARTESIAN_POINT('',(3.95E-2,0.E0,3.15E-2));
#60=LINE('',#59,#58);
#61=DIRECTION('',(0.E0,1.E0,0.E0));
#62=VECTOR('',#61,3.4E-2);
#63=CARTESIAN_POINT('',(-3.95E-2,0.E0,3.15E-2));
#64=LINE('',#63,#62);
#65=DIRECTION('',(0.E0,0.E0,1.E0));
#66=VECTOR('',#65,6.3E-2);
#67=CARTESIAN_POINT('',(-3.95E-2,3.4E-2,-3.15E-2));
#68=LINE('',#67,#66);
#69=DIRECTION('',(-1.E0,0.E0,0.E0));
#70=VECTOR('',#69,7.9E-2);
#71=CARTESIAN_POINT('',(3.95E-2,3.4E-2,-3.15E-2));
#72=LINE('',#71,#70);
#73=DIRECTION('',(0.E0,0.E0,-1.E0));
#74=VECTOR('',#73,6.3E-2);
#75=CARTESIAN_POINT('',(3.95E-2,3.4E-2,3.15E-2));
#76=LINE('',#75,#74);
#77=DIRECTION('',(1.E0,0.E0,0.E0));
#78=VECTOR('',#77,7.9E-2);
#79=CARTESIAN_POINT('',(-3.95E-2,3.4E-2,3.15E-2));
#80=LINE('',#79,#78);
#81=DIRECTION('',(0.E0,-1.E0,0.E0));
#82=VECTOR('',#81,5.E-3);
#83=CARTESIAN_POINT('',(1.4E-2,0.E0,3.E-2));
#84=LINE('',#83,#82);
#85=DIRECTION('',(0.E0,-1.E0,0.E0));
#86=VECTOR('',#85,5.E-3);
#87=CARTESIAN_POINT('',(3.8E-2,0.E0,3.E-2));
#88=LINE('',#87,#86);
#89=DIRECTION('',(0.E0,-1.E0,0.E0));
#90=VECTOR('',#89,5.E-3);
#91=CARTESIAN_POINT('',(3.8E-2,0.E0,-3.E-2));
#92=LINE('',#91,#90);
#93=DIRECTION('',(0.E0,-1.E0,0.E0));
#94=VECTOR('',#93,5.E-3);
#95=CARTESIAN_POINT('',(1.4E-2,0.E0,-3.E-2));
#96=LINE('',#95,#94);
#97=DIRECTION('',(0.E0,0.E0,-1.E0));
#98=VECTOR('',#97,6.E-2);
#99=CARTESIAN_POINT('',(1.4E-2,-5.E-3,3.E-2));
#100=LINE('',#99,#98);
#101=DIRECTION('',(-1.E0,0.E0,0.E0));
#102=VECTOR('',#101,2.4E-2);
#103=CARTESIAN_POINT('',(3.8E-2,-5.E-3,3.E-2));
#104=LINE('',#103,#102);
#105=DIRECTION('',(0.E0,0.E0,1.E0));
#106=VECTOR('',#105,6.E-2);
#107=CARTESIAN_POINT('',(3.8E-2,-5.E-3,-3.E-2));
#108=LINE('',#107,#106);
#109=DIRECTION('',(1.E0,0.E0,0.E0));
#110=VECTOR('',#109,2.4E-2);
#111=CARTESIAN_POINT('',(1.4E-2,-5.E-3,-3.E-2));
#112=LINE('',#111,#110);
#113=DIRECTION('',(-1.E0,0.E0,0.E0));
#114=VECTOR('',#113,2.4E-2);
#115=CARTESIAN_POINT('',(-1.399999999999E-2,-5.E-3,3.E-2));
#116=LINE('',#115,#114);
#117=DIRECTION('',(0.E0,0.E0,1.E0));
#118=VECTOR('',#117,6.E-2);
#119=CARTESIAN_POINT('',(-1.399999999999E-2,-5.E-3,-3.E-2));
#120=LINE('',#119,#118);
#121=DIRECTION('',(1.E0,0.E0,0.E0));
#122=VECTOR('',#121,2.4E-2);
#123=CARTESIAN_POINT('',(-3.799999999999E-2,-5.E-3,-3.E-2));
#124=LINE('',#123,#122);
#125=DIRECTION('',(0.E0,0.E0,-1.E0));
#126=VECTOR('',#125,6.E-2);
#127=CARTESIAN_POINT('',(-3.799999999999E-2,-5.E-3,3.E-2));
#128=LINE('',#127,#126);
#129=DIRECTION('',(0.E0,-1.E0,0.E0));
#130=VECTOR('',#129,5.E-3);
#131=CARTESIAN_POINT('',(-1.399999999999E-2,0.E0,3.E-2));
#132=LINE('',#131,#130);
#133=DIRECTION('',(0.E0,-1.E0,0.E0));
#134=VECTOR('',#133,5.E-3);
#135=CARTESIAN_POINT('',(-1.399999999999E-2,0.E0,-3.E-2));
#136=LINE('',#135,#134);
#137=DIRECTION('',(0.E0,-1.E0,0.E0));
#138=VECTOR('',#137,5.E-3);
#139=CARTESIAN_POINT('',(-3.799999999999E-2,0.E0,-3.E-2));
#140=LINE('',#139,#138);
#141=DIRECTION('',(0.E0,-1.E0,0.E0));
#142=VECTOR('',#141,5.E-3);
#143=CARTESIAN_POINT('',(-3.799999999999E-2,0.E0,3.E-2));
#144=LINE('',#143,#142);
#145=CARTESIAN_POINT('',(-3.95E-2,0.E0,-3.15E-2));
#146=CARTESIAN_POINT('',(-3.95E-2,0.E0,3.15E-2));
#147=VERTEX_POINT('',#145);
#148=VERTEX_POINT('',#146);
#149=CARTESIAN_POINT('',(3.95E-2,0.E0,3.15E-2));
#150=VERTEX_POINT('',#149);
#151=CARTESIAN_POINT('',(3.95E-2,0.E0,-3.15E-2));
#152=VERTEX_POINT('',#151);
#153=CARTESIAN_POINT('',(-3.95E-2,3.4E-2,-3.15E-2));
#154=CARTESIAN_POINT('',(-3.95E-2,3.4E-2,3.15E-2));
#155=VERTEX_POINT('',#153);
#156=VERTEX_POINT('',#154);
#157=CARTESIAN_POINT('',(3.95E-2,3.4E-2,3.15E-2));
#158=VERTEX_POINT('',#157);
#159=CARTESIAN_POINT('',(3.95E-2,3.4E-2,-3.15E-2));
#160=VERTEX_POINT('',#159);
#161=CARTESIAN_POINT('',(1.4E-2,-5.E-3,3.E-2));
#162=CARTESIAN_POINT('',(1.4E-2,-5.E-3,-3.E-2));
#163=VERTEX_POINT('',#161);
#164=VERTEX_POINT('',#162);
#165=CARTESIAN_POINT('',(3.8E-2,-5.E-3,-3.E-2));
#166=VERTEX_POINT('',#165);
#167=CARTESIAN_POINT('',(3.8E-2,-5.E-3,3.E-2));
#168=VERTEX_POINT('',#167);
#169=CARTESIAN_POINT('',(-1.399999999999E-2,-5.E-3,3.E-2));
#170=CARTESIAN_POINT('',(-3.799999999999E-2,-5.E-3,3.E-2));
#171=VERTEX_POINT('',#169);
#172=VERTEX_POINT('',#170);
#173=CARTESIAN_POINT('',(-3.799999999999E-2,-5.E-3,-3.E-2));
#174=VERTEX_POINT('',#173);
#175=CARTESIAN_POINT('',(-1.399999999999E-2,-5.E-3,-3.E-2));
#176=VERTEX_POINT('',#175);
#177=CARTESIAN_POINT('',(1.4E-2,0.E0,3.E-2));
#178=CARTESIAN_POINT('',(1.4E-2,0.E0,-3.E-2));
#179=VERTEX_POINT('',#177);
#180=VERTEX_POINT('',#178);
#181=CARTESIAN_POINT('',(3.8E-2,0.E0,-3.E-2));
#182=VERTEX_POINT('',#181);
#183=CARTESIAN_POINT('',(3.8E-2,0.E0,3.E-2));
#184=VERTEX_POINT('',#183);
#185=CARTESIAN_POINT('',(-1.399999999999E-2,0.E0,3.E-2));
#186=CARTESIAN_POINT('',(-3.799999999999E-2,0.E0,3.E-2));
#187=VERTEX_POINT('',#185);
#188=VERTEX_POINT('',#186);
#189=CARTESIAN_POINT('',(-3.799999999999E-2,0.E0,-3.E-2));
#190=VERTEX_POINT('',#189);
#191=CARTESIAN_POINT('',(-1.399999999999E-2,0.E0,-3.E-2));
#192=VERTEX_POINT('',#191);
#193=CARTESIAN_POINT('',(0.E0,0.E0,0.E0));
#194=DIRECTION('',(0.E0,1.E0,0.E0));
#195=DIRECTION('',(1.E0,0.E0,0.E0));
#196=AXIS2_PLACEMENT_3D('',#193,#194,#195);
#197=PLANE('',#196);
#199=ORIENTED_EDGE('',*,*,#198,.T.);
#201=ORIENTED_EDGE('',*,*,#200,.T.);
#203=ORIENTED_EDGE('',*,*,#202,.T.);
#205=ORIENTED_EDGE('',*,*,#204,.T.);
#206=EDGE_LOOP('',(#199,#201,#203,#205));
#207=FACE_OUTER_BOUND('',#206,.F.);
#209=ORIENTED_EDGE('',*,*,#208,.T.);
#211=ORIENTED_EDGE('',*,*,#210,.T.);
#213=ORIENTED_EDGE('',*,*,#212,.T.);
#215=ORIENTED_EDGE('',*,*,#214,.T.);
#216=EDGE_LOOP('',(#209,#211,#213,#215));
#217=FACE_BOUND('',#216,.F.);
#219=ORIENTED_EDGE('',*,*,#218,.T.);
#221=ORIENTED_EDGE('',*,*,#220,.T.);
#223=ORIENTED_EDGE('',*,*,#222,.T.);
#225=ORIENTED_EDGE('',*,*,#224,.T.);
#226=EDGE_LOOP('',(#219,#221,#223,#225));
#227=FACE_BOUND('',#226,.F.);
#228=ADVANCED_FACE('',(#207,#217,#227),#197,.F.);
#229=CARTESIAN_POINT('',(-3.95E-2,0.E0,-3.15E-2));
#230=DIRECTION('',(-1.E0,0.E0,0.E0));
#231=DIRECTION('',(0.E0,0.E0,1.E0));
#232=AXIS2_PLACEMENT_3D('',#229,#230,#231);
#233=PLANE('',#232);
#234=ORIENTED_EDGE('',*,*,#198,.F.);
#236=ORIENTED_EDGE('',*,*,#235,.T.);
#238=ORIENTED_EDGE('',*,*,#237,.T.);
#240=ORIENTED_EDGE('',*,*,#239,.F.);
#241=EDGE_LOOP('',(#234,#236,#238,#240));
#242=FACE_OUTER_BOUND('',#241,.F.);
#243=ADVANCED_FACE('',(#242),#233,.T.);
#244=CARTESIAN_POINT('',(3.95E-2,0.E0,-3.15E-2));
#245=DIRECTION('',(0.E0,0.E0,-1.E0));
#246=DIRECTION('',(-1.E0,0.E0,0.E0));
#247=AXIS2_PLACEMENT_3D('',#244,#245,#246);
#248=PLANE('',#247);
#249=ORIENTED_EDGE('',*,*,#204,.F.);
#251=ORIENTED_EDGE('',*,*,#250,.T.);
#253=ORIENTED_EDGE('',*,*,#252,.T.);
#254=ORIENTED_EDGE('',*,*,#235,.F.);
#255=EDGE_LOOP('',(#249,#251,#253,#254));
#256=FACE_OUTER_BOUND('',#255,.F.);
#257=ADVANCED_FACE('',(#256),#248,.T.);
#258=CARTESIAN_POINT('',(3.95E-2,0.E0,3.15E-2));
#259=DIRECTION('',(1.E0,0.E0,0.E0));
#260=DIRECTION('',(0.E0,0.E0,-1.E0));
#261=AXIS2_PLACEMENT_3D('',#258,#259,#260);
#262=PLANE('',#261);
#263=ORIENTED_EDGE('',*,*,#202,.F.);
#265=ORIENTED_EDGE('',*,*,#264,.T.);
#267=ORIENTED_EDGE('',*,*,#266,.T.);
#268=ORIENTED_EDGE('',*,*,#250,.F.);
#269=EDGE_LOOP('',(#263,#265,#267,#268));
#270=FACE_OUTER_BOUND('',#269,.F.);
#271=ADVANCED_FACE('',(#270),#262,.T.);
#272=CARTESIAN_POINT('',(-3.95E-2,0.E0,3.15E-2));
#273=DIRECTION('',(0.E0,0.E0,1.E0));
#274=DIRECTION('',(1.E0,0.E0,0.E0));
#275=AXIS2_PLACEMENT_3D('',#272,#273,#274);
#276=PLANE('',#275);
#277=ORIENTED_EDGE('',*,*,#200,.F.);
#278=ORIENTED_EDGE('',*,*,#239,.T.);
#280=ORIENTED_EDGE('',*,*,#279,.T.);
#281=ORIENTED_EDGE('',*,*,#264,.F.);
#282=EDGE_LOOP('',(#277,#278,#280,#281));
#283=FACE_OUTER_BOUND('',#282,.F.);
#284=ADVANCED_FACE('',(#283),#276,.T.);
#285=CARTESIAN_POINT('',(0.E0,3.4E-2,0.E0));
#286=DIRECTION('',(0.E0,1.E0,0.E0));
#287=DIRECTION('',(1.E0,0.E0,0.E0));
#288=AXIS2_PLACEMENT_3D('',#285,#286,#287);
#289=PLANE('',#288);
#290=ORIENTED_EDGE('',*,*,#237,.F.);
#291=ORIENTED_EDGE('',*,*,#252,.F.);
#292=ORIENTED_EDGE('',*,*,#266,.F.);
#293=ORIENTED_EDGE('',*,*,#279,.F.);
#294=EDGE_LOOP('',(#290,#291,#292,#293));
#295=FACE_OUTER_BOUND('',#294,.F.);
#296=ADVANCED_FACE('',(#295),#289,.T.);
#297=CARTESIAN_POINT('',(1.4E-2,0.E0,3.E-2));
#298=DIRECTION('',(-1.E0,0.E0,0.E0));
#299=DIRECTION('',(0.E0,0.E0,-1.E0));
#300=AXIS2_PLACEMENT_3D('',#297,#298,#299);
#301=PLANE('',#300);
#302=ORIENTED_EDGE('',*,*,#208,.F.);
#304=ORIENTED_EDGE('',*,*,#303,.T.);
#306=ORIENTED_EDGE('',*,*,#305,.T.);
#308=ORIENTED_EDGE('',*,*,#307,.F.);
#309=EDGE_LOOP('',(#302,#304,#306,#308));
#310=FACE_OUTER_BOUND('',#309,.F.);
#311=ADVANCED_FACE('',(#310),#301,.T.);
#312=CARTESIAN_POINT('',(3.8E-2,0.E0,3.E-2));
#313=DIRECTION('',(0.E0,0.E0,1.E0));
#314=DIRECTION('',(-1.E0,0.E0,0.E0));
#315=AXIS2_PLACEMENT_3D('',#312,#313,#314);
#316=PLANE('',#315);
#317=ORIENTED_EDGE('',*,*,#214,.F.);
#319=ORIENTED_EDGE('',*,*,#318,.T.);
#321=ORIENTED_EDGE('',*,*,#320,.T.);
#322=ORIENTED_EDGE('',*,*,#303,.F.);
#323=EDGE_LOOP('',(#317,#319,#321,#322));
#324=FACE_OUTER_BOUND('',#323,.F.);
#325=ADVANCED_FACE('',(#324),#316,.T.);
#326=CARTESIAN_POINT('',(3.8E-2,0.E0,-3.E-2));
#327=DIRECTION('',(1.E0,0.E0,0.E0));
#328=DIRECTION('',(0.E0,0.E0,1.E0));
#329=AXIS2_PLACEMENT_3D('',#326,#327,#328);
#330=PLANE('',#329);
#331=ORIENTED_EDGE('',*,*,#212,.F.);
#333=ORIENTED_EDGE('',*,*,#332,.T.);
#335=ORIENTED_EDGE('',*,*,#334,.T.);
#336=ORIENTED_EDGE('',*,*,#318,.F.);
#337=EDGE_LOOP('',(#331,#333,#335,#336));
#338=FACE_OUTER_BOUND('',#337,.F.);
#339=ADVANCED_FACE('',(#338),#330,.T.);
#340=CARTESIAN_POINT('',(1.4E-2,0.E0,-3.E-2));
#341=DIRECTION('',(0.E0,0.E0,-1.E0));
#342=DIRECTION('',(1.E0,0.E0,0.E0));
#343=AXIS2_PLACEMENT_3D('',#340,#341,#342);
#344=PLANE('',#343);
#345=ORIENTED_EDGE('',*,*,#210,.F.);
#346=ORIENTED_EDGE('',*,*,#307,.T.);
#348=ORIENTED_EDGE('',*,*,#347,.T.);
#349=ORIENTED_EDGE('',*,*,#332,.F.);
#350=EDGE_LOOP('',(#345,#346,#348,#349));
#351=FACE_OUTER_BOUND('',#350,.F.);
#352=ADVANCED_FACE('',(#351),#344,.T.);
#353=CARTESIAN_POINT('',(0.E0,-5.E-3,0.E0));
#354=DIRECTION('',(0.E0,-1.E0,0.E0));
#355=DIRECTION('',(1.E0,0.E0,0.E0));
#356=AXIS2_PLACEMENT_3D('',#353,#354,#355);
#357=PLANE('',#356);
#358=ORIENTED_EDGE('',*,*,#305,.F.);
#359=ORIENTED_EDGE('',*,*,#320,.F.);
#360=ORIENTED_EDGE('',*,*,#334,.F.);
#361=ORIENTED_EDGE('',*,*,#347,.F.);
#362=EDGE_LOOP('',(#358,#359,#360,#361));
#363=FACE_OUTER_BOUND('',#362,.F.);
#364=ADVANCED_FACE('',(#363),#357,.T.);
#365=CARTESIAN_POINT('',(0.E0,-5.E-3,0.E0));
#366=DIRECTION('',(0.E0,-1.E0,0.E0));
#367=DIRECTION('',(1.E0,0.E0,0.E0));
#368=AXIS2_PLACEMENT_3D('',#365,#366,#367);
#369=PLANE('',#368);
#371=ORIENTED_EDGE('',*,*,#370,.F.);
#373=ORIENTED_EDGE('',*,*,#372,.F.);
#375=ORIENTED_EDGE('',*,*,#374,.F.);
#377=ORIENTED_EDGE('',*,*,#376,.F.);
#378=EDGE_LOOP('',(#371,#373,#375,#377));
#379=FACE_OUTER_BOUND('',#378,.F.);
#380=ADVANCED_FACE('',(#379),#369,.T.);
#381=CARTESIAN_POINT('',(-1.399999999999E-2,0.E0,3.E-2));
#382=DIRECTION('',(0.E0,0.E0,1.E0));
#383=DIRECTION('',(-1.E0,0.E0,0.E0));
#384=AXIS2_PLACEMENT_3D('',#381,#382,#383);
#385=PLANE('',#384);
#386=ORIENTED_EDGE('',*,*,#218,.F.);
#388=ORIENTED_EDGE('',*,*,#387,.T.);
#389=ORIENTED_EDGE('',*,*,#370,.T.);
#391=ORIENTED_EDGE('',*,*,#390,.F.);
#392=EDGE_LOOP('',(#386,#388,#389,#391));
#393=FACE_OUTER_BOUND('',#392,.F.);
#394=ADVANCED_FACE('',(#393),#385,.T.);
#395=CARTESIAN_POINT('',(-1.399999999999E-2,0.E0,-3.E-2));
#396=DIRECTION('',(1.E0,0.E0,0.E0));
#397=DIRECTION('',(0.E0,0.E0,1.E0));
#398=AXIS2_PLACEMENT_3D('',#395,#396,#397);
#399=PLANE('',#398);
#400=ORIENTED_EDGE('',*,*,#224,.F.);
#402=ORIENTED_EDGE('',*,*,#401,.T.);
#403=ORIENTED_EDGE('',*,*,#372,.T.);
#404=ORIENTED_EDGE('',*,*,#387,.F.);
#405=EDGE_LOOP('',(#400,#402,#403,#404));
#406=FACE_OUTER_BOUND('',#405,.F.);
#407=ADVANCED_FACE('',(#406),#399,.T.);
#408=CARTESIAN_POINT('',(-3.799999999999E-2,0.E0,-3.E-2));
#409=DIRECTION('',(0.E0,0.E0,-1.E0));
#410=DIRECTION('',(1.E0,0.E0,0.E0));
#411=AXIS2_PLACEMENT_3D('',#408,#409,#410);
#412=PLANE('',#411);
#413=ORIENTED_EDGE('',*,*,#222,.F.);
#415=ORIENTED_EDGE('',*,*,#414,.T.);
#416=ORIENTED_EDGE('',*,*,#374,.T.);
#417=ORIENTED_EDGE('',*,*,#401,.F.);
#418=EDGE_LOOP('',(#413,#415,#416,#417));
#419=FACE_OUTER_BOUND('',#418,.F.);
#420=ADVANCED_FACE('',(#419),#412,.T.);
#421=CARTESIAN_POINT('',(-3.799999999999E-2,0.E0,3.E-2));
#422=DIRECTION('',(-1.E0,0.E0,0.E0));
#423=DIRECTION('',(0.E0,0.E0,-1.E0));
#424=AXIS2_PLACEMENT_3D('',#421,#422,#423);
#425=PLANE('',#424);
#426=ORIENTED_EDGE('',*,*,#220,.F.);
#427=ORIENTED_EDGE('',*,*,#390,.T.);
#428=ORIENTED_EDGE('',*,*,#376,.T.);
#429=ORIENTED_EDGE('',*,*,#414,.F.);
#430=EDGE_LOOP('',(#426,#427,#428,#429));
#431=FACE_OUTER_BOUND('',#430,.F.);
#432=ADVANCED_FACE('',(#431),#425,.T.);
#433=CLOSED_SHELL('',(#228,#243,#257,#271,#284,#296,#311,#325,#339,#352,#364,
#380,#394,#407,#420,#432));
#434=MANIFOLD_SOLID_BREP('',#433);
#435=DIMENSIONAL_EXPONENTS(1.E0,0.E0,0.E0,0.E0,0.E0,0.E0,0.E0);
#437=LENGTH_MEASURE_WITH_UNIT(LENGTH_MEASURE(2.54E1),#436);
#438=(CONVERSION_BASED_UNIT('INCH',#437)LENGTH_UNIT()NAMED_UNIT(#435));
#439=DIMENSIONAL_EXPONENTS(0.E0,0.E0,0.E0,0.E0,0.E0,0.E0,0.E0);
#441=PLANE_ANGLE_MEASURE_WITH_UNIT(PLANE_ANGLE_MEASURE(1.745329251994E-2),#440);
#442=(CONVERSION_BASED_UNIT('DEGREE',#441)NAMED_UNIT(*)PLANE_ANGLE_UNIT());
#444=UNCERTAINTY_MEASURE_WITH_UNIT(LENGTH_MEASURE(1.083054086312E-5),#438,
'closure',
'Maximum model space distance between geometric entities at asserted connectivities');
#445=(GEOMETRIC_REPRESENTATION_CONTEXT(3)GLOBAL_UNCERTAINTY_ASSIGNED_CONTEXT((
#444))GLOBAL_UNIT_ASSIGNED_CONTEXT((#438,#442,#443))REPRESENTATION_CONTEXT
('ID1','3'));
#447=APPLICATION_CONTEXT(
'CONFIGURATION CONTROLLED 3D DESIGNS OF MECHANICAL PARTS AND ASSEMBLIES');
#448=APPLICATION_PROTOCOL_DEFINITION('international standard',
'config_control_design',1994,#447);
#449=DESIGN_CONTEXT('',#447,'design');
#450=MECHANICAL_CONTEXT('',#447,'mechanical');
#451=PRODUCT('SRN2010TA','SRN2010TA','NOT SPECIFIED',(#450));
#452=PRODUCT_DEFINITION_FORMATION_WITH_SPECIFIED_SOURCE('3','LAST_VERSION',#451,
.MADE.);
#456=PRODUCT_CATEGORY('part','');
#457=PRODUCT_RELATED_PRODUCT_CATEGORY('detail','',(#451));
#458=PRODUCT_CATEGORY_RELATIONSHIP('','',#456,#457);
#459=SECURITY_CLASSIFICATION_LEVEL('unclassified');
#460=SECURITY_CLASSIFICATION('','',#459);
#461=CC_DESIGN_SECURITY_CLASSIFICATION(#460,(#452));
#462=APPROVAL_STATUS('approved');
#463=APPROVAL(#462,'');
#464=CC_DESIGN_APPROVAL(#463,(#460,#452,#453));
#465=CALENDAR_DATE(116,24,5);
#466=COORDINATED_UNIVERSAL_TIME_OFFSET(7,0,.BEHIND.);
#467=LOCAL_TIME(11,47,4.9E1,#466);
#468=DATE_AND_TIME(#465,#467);
#469=APPROVAL_DATE_TIME(#468,#463);
#470=DATE_TIME_ROLE('creation_date');
#471=CC_DESIGN_DATE_AND_TIME_ASSIGNMENT(#468,#470,(#453));
#472=DATE_TIME_ROLE('classification_date');
#473=CC_DESIGN_DATE_AND_TIME_ASSIGNMENT(#468,#472,(#460));
#474=PERSON('UNSPECIFIED','UNSPECIFIED',$,$,$,$);
#475=ORGANIZATION('UNSPECIFIED','UNSPECIFIED','UNSPECIFIED');
#476=PERSON_AND_ORGANIZATION(#474,#475);
#477=APPROVAL_ROLE('approver');
#478=APPROVAL_PERSON_ORGANIZATION(#476,#463,#477);
#479=PERSON_AND_ORGANIZATION_ROLE('creator');
#480=CC_DESIGN_PERSON_AND_ORGANIZATION_ASSIGNMENT(#476,#479,(#452,#453));
#481=PERSON_AND_ORGANIZATION_ROLE('design_supplier');
#482=CC_DESIGN_PERSON_AND_ORGANIZATION_ASSIGNMENT(#476,#481,(#452));
#483=PERSON_AND_ORGANIZATION_ROLE('classification_officer');
#484=CC_DESIGN_PERSON_AND_ORGANIZATION_ASSIGNMENT(#476,#483,(#460));
#485=PERSON_AND_ORGANIZATION_ROLE('design_owner');
#486=CC_DESIGN_PERSON_AND_ORGANIZATION_ASSIGNMENT(#476,#485,(#451));
#198=EDGE_CURVE('',#147,#148,#4,.T.);
#200=EDGE_CURVE('',#148,#150,#8,.T.);
#202=EDGE_CURVE('',#150,#152,#12,.T.);
#204=EDGE_CURVE('',#152,#147,#16,.T.);
#208=EDGE_CURVE('',#179,#180,#20,.T.);
#210=EDGE_CURVE('',#180,#182,#24,.T.);
#212=EDGE_CURVE('',#182,#184,#28,.T.);
#214=EDGE_CURVE('',#184,#179,#32,.T.);
#218=EDGE_CURVE('',#187,#188,#36,.T.);
#220=EDGE_CURVE('',#188,#190,#40,.T.);
#222=EDGE_CURVE('',#190,#192,#44,.T.);
#224=EDGE_CURVE('',#192,#187,#48,.T.);
#235=EDGE_CURVE('',#147,#155,#52,.T.);
#237=EDGE_CURVE('',#155,#156,#68,.T.);
#239=EDGE_CURVE('',#148,#156,#64,.T.);
#250=EDGE_CURVE('',#152,#160,#56,.T.);
#252=EDGE_CURVE('',#160,#155,#72,.T.);
#264=EDGE_CURVE('',#150,#158,#60,.T.);
#266=EDGE_CURVE('',#158,#160,#76,.T.);
#279=EDGE_CURVE('',#156,#158,#80,.T.);
#303=EDGE_CURVE('',#179,#163,#84,.T.);
#305=EDGE_CURVE('',#163,#164,#100,.T.);
#307=EDGE_CURVE('',#180,#164,#96,.T.);
#318=EDGE_CURVE('',#184,#168,#88,.T.);
#320=EDGE_CURVE('',#168,#163,#104,.T.);
#332=EDGE_CURVE('',#182,#166,#92,.T.);
#334=EDGE_CURVE('',#166,#168,#108,.T.);
#347=EDGE_CURVE('',#164,#166,#112,.T.);
#370=EDGE_CURVE('',#171,#172,#116,.T.);
#372=EDGE_CURVE('',#176,#171,#120,.T.);
#374=EDGE_CURVE('',#174,#176,#124,.T.);
#376=EDGE_CURVE('',#172,#174,#128,.T.);
#387=EDGE_CURVE('',#187,#171,#132,.T.);
#390=EDGE_CURVE('',#188,#172,#144,.T.);
#401=EDGE_CURVE('',#192,#176,#136,.T.);
#414=EDGE_CURVE('',#190,#174,#140,.T.);
#436=(LENGTH_UNIT()NAMED_UNIT(*)SI_UNIT(.MILLI.,.METRE.));
#440=(NAMED_UNIT(*)PLANE_ANGLE_UNIT()SI_UNIT($,.RADIAN.));
#443=(NAMED_UNIT(*)SI_UNIT($,.STERADIAN.)SOLID_ANGLE_UNIT());
#446=ADVANCED_BREP_SHAPE_REPRESENTATION('',(#434),#445);
#453=PRODUCT_DEFINITION('design','',#452,#449);
#454=PRODUCT_DEFINITION_SHAPE('','SHAPE FOR SRN2010TA.',#453);
#455=SHAPE_DEFINITION_REPRESENTATION(#454,#446);
ENDSEC;
END-ISO-10303-21;
