ISO-10303-21;
HEADER;
FILE_DESCRIPTION((''),'2;1');
FILE_NAME('SRP8040','2012-07-13T',('ryans'),('Bourns, Inc.'),
'PRO/ENGINEER BY PARAMETRIC TECHNOLOGY CORPORATION, 2010100',
'PRO/ENGINEER BY PARAMETRIC TECHNOLOGY CORPORATION, 2010100','');
FILE_SCHEMA(('CONFIG_CONTROL_DESIGN'));
ENDSEC;
DATA;
#1=DIRECTION('',(0.E0,0.E0,1.E0));
#2=VECTOR('',#1,3.E0);
#3=CARTESIAN_POINT('',(2.3E0,0.E0,-1.5E0));
#4=LINE('',#3,#2);
#5=DIRECTION('',(-1.E0,0.E0,0.E0));
#6=VECTOR('',#5,1.5E0);
#7=CARTESIAN_POINT('',(3.8E0,0.E0,-1.5E0));
#8=LINE('',#7,#6);
#9=DIRECTION('',(0.E0,0.E0,-1.E0));
#10=VECTOR('',#9,1.55E0);
#11=CARTESIAN_POINT('',(3.8E0,0.E0,-1.5E0));
#12=LINE('',#11,#10);
#13=DIRECTION('',(-1.E0,0.E0,0.E0));
#14=VECTOR('',#13,7.6E0);
#15=CARTESIAN_POINT('',(3.8E0,0.E0,-3.05E0));
#16=LINE('',#15,#14);
#17=DIRECTION('',(0.E0,0.E0,1.E0));
#18=VECTOR('',#17,1.55E0);
#19=CARTESIAN_POINT('',(-3.8E0,0.E0,-3.05E0));
#20=LINE('',#19,#18);
#21=DIRECTION('',(1.E0,0.E0,0.E0));
#22=VECTOR('',#21,1.5E0);
#23=CARTESIAN_POINT('',(-3.8E0,0.E0,-1.5E0));
#24=LINE('',#23,#22);
#25=DIRECTION('',(0.E0,0.E0,-1.E0));
#26=VECTOR('',#25,3.E0);
#27=CARTESIAN_POINT('',(-2.3E0,0.E0,1.5E0));
#28=LINE('',#27,#26);
#29=DIRECTION('',(1.E0,0.E0,0.E0));
#30=VECTOR('',#29,1.5E0);
#31=CARTESIAN_POINT('',(-3.8E0,0.E0,1.5E0));
#32=LINE('',#31,#30);
#33=DIRECTION('',(0.E0,0.E0,1.E0));
#34=VECTOR('',#33,1.55E0);
#35=CARTESIAN_POINT('',(-3.8E0,0.E0,1.5E0));
#36=LINE('',#35,#34);
#37=DIRECTION('',(1.E0,0.E0,0.E0));
#38=VECTOR('',#37,7.6E0);
#39=CARTESIAN_POINT('',(-3.8E0,0.E0,3.05E0));
#40=LINE('',#39,#38);
#41=DIRECTION('',(0.E0,0.E0,-1.E0));
#42=VECTOR('',#41,1.55E0);
#43=CARTESIAN_POINT('',(3.8E0,0.E0,3.05E0));
#44=LINE('',#43,#42);
#45=DIRECTION('',(-1.E0,0.E0,0.E0));
#46=VECTOR('',#45,1.5E0);
#47=CARTESIAN_POINT('',(3.8E0,0.E0,1.5E0));
#48=LINE('',#47,#46);
#49=DIRECTION('',(0.E0,-1.E0,0.E0));
#50=VECTOR('',#49,2.E-1);
#51=CARTESIAN_POINT('',(2.3E0,0.E0,-1.5E0));
#52=LINE('',#51,#50);
#53=DIRECTION('',(0.E0,-1.E0,0.E0));
#54=VECTOR('',#53,2.E-1);
#55=CARTESIAN_POINT('',(2.3E0,0.E0,1.5E0));
#56=LINE('',#55,#54);
#57=DIRECTION('',(0.E0,0.E0,-1.E0));
#58=VECTOR('',#57,3.E0);
#59=CARTESIAN_POINT('',(3.8E0,2.5E0,1.5E0));
#60=LINE('',#59,#58);
#61=DIRECTION('',(0.E0,1.E0,0.E0));
#62=VECTOR('',#61,2.5E0);
#63=CARTESIAN_POINT('',(3.8E0,0.E0,1.5E0));
#64=LINE('',#63,#62);
#65=DIRECTION('',(0.E0,1.E0,0.E0));
#66=VECTOR('',#65,4.E0);
#67=CARTESIAN_POINT('',(3.8E0,0.E0,3.05E0));
#68=LINE('',#67,#66);
#69=DIRECTION('',(0.E0,1.E0,0.E0));
#70=VECTOR('',#69,2.5E0);
#71=CARTESIAN_POINT('',(3.8E0,0.E0,-1.5E0));
#72=LINE('',#71,#70);
#73=DIRECTION('',(1.E0,0.E0,0.E0));
#74=VECTOR('',#73,3.E-1);
#75=CARTESIAN_POINT('',(-4.1E0,2.5E0,1.5E0));
#76=LINE('',#75,#74);
#77=DIRECTION('',(0.E0,0.E0,1.E0));
#78=VECTOR('',#77,3.E0);
#79=CARTESIAN_POINT('',(-4.1E0,2.5E0,-1.5E0));
#80=LINE('',#79,#78);
#81=DIRECTION('',(-1.E0,0.E0,0.E0));
#82=VECTOR('',#81,3.E-1);
#83=CARTESIAN_POINT('',(-3.8E0,2.5E0,-1.5E0));
#84=LINE('',#83,#82);
#85=DIRECTION('',(-1.E0,0.E0,0.E0));
#86=VECTOR('',#85,3.E-1);
#87=CARTESIAN_POINT('',(4.1E0,2.5E0,-1.5E0));
#88=LINE('',#87,#86);
#89=DIRECTION('',(0.E0,0.E0,-1.E0));
#90=VECTOR('',#89,3.E0);
#91=CARTESIAN_POINT('',(4.1E0,2.5E0,1.5E0));
#92=LINE('',#91,#90);
#93=DIRECTION('',(1.E0,0.E0,0.E0));
#94=VECTOR('',#93,3.E-1);
#95=CARTESIAN_POINT('',(3.8E0,2.5E0,1.5E0));
#96=LINE('',#95,#94);
#97=DIRECTION('',(0.E0,0.E0,-1.E0));
#98=VECTOR('',#97,3.E0);
#99=CARTESIAN_POINT('',(-3.8E0,2.5E0,1.5E0));
#100=LINE('',#99,#98);
#101=DIRECTION('',(0.E0,1.E0,0.E0));
#102=VECTOR('',#101,2.5E0);
#103=CARTESIAN_POINT('',(-3.8E0,0.E0,-1.5E0));
#104=LINE('',#103,#102);
#105=DIRECTION('',(0.E0,1.E0,0.E0));
#106=VECTOR('',#105,4.E0);
#107=CARTESIAN_POINT('',(-3.8E0,0.E0,-3.05E0));
#108=LINE('',#107,#106);
#109=DIRECTION('',(0.E0,1.E0,0.E0));
#110=VECTOR('',#109,2.5E0);
#111=CARTESIAN_POINT('',(-3.8E0,0.E0,1.5E0));
#112=LINE('',#111,#110);
#113=DIRECTION('',(0.E0,-1.E0,0.E0));
#114=VECTOR('',#113,2.E-1);
#115=CARTESIAN_POINT('',(-2.3E0,0.E0,-1.5E0));
#116=LINE('',#115,#114);
#117=DIRECTION('',(0.E0,-1.E0,0.E0));
#118=VECTOR('',#117,2.7E0);
#119=CARTESIAN_POINT('',(-4.1E0,2.5E0,-1.5E0));
#120=LINE('',#119,#118);
#121=DIRECTION('',(0.E0,-1.E0,0.E0));
#122=VECTOR('',#121,2.7E0);
#123=CARTESIAN_POINT('',(-4.1E0,2.5E0,1.5E0));
#124=LINE('',#123,#122);
#125=DIRECTION('',(0.E0,-1.E0,0.E0));
#126=VECTOR('',#125,2.E-1);
#127=CARTESIAN_POINT('',(-2.3E0,0.E0,1.5E0));
#128=LINE('',#127,#126);
#129=DIRECTION('',(0.E0,0.E0,1.E0));
#130=VECTOR('',#129,3.E0);
#131=CARTESIAN_POINT('',(2.3E0,-2.E-1,-1.5E0));
#132=LINE('',#131,#130);
#133=DIRECTION('',(1.E0,0.E0,0.E0));
#134=VECTOR('',#133,1.8E0);
#135=CARTESIAN_POINT('',(2.3E0,-2.E-1,1.5E0));
#136=LINE('',#135,#134);
#137=DIRECTION('',(0.E0,0.E0,-1.E0));
#138=VECTOR('',#137,3.E0);
#139=CARTESIAN_POINT('',(4.1E0,-2.E-1,1.5E0));
#140=LINE('',#139,#138);
#141=DIRECTION('',(-1.E0,0.E0,0.E0));
#142=VECTOR('',#141,1.8E0);
#143=CARTESIAN_POINT('',(4.1E0,-2.E-1,-1.5E0));
#144=LINE('',#143,#142);
#145=DIRECTION('',(-1.E0,0.E0,0.E0));
#146=VECTOR('',#145,1.8E0);
#147=CARTESIAN_POINT('',(-2.3E0,-2.E-1,-1.5E0));
#148=LINE('',#147,#146);
#149=DIRECTION('',(0.E0,0.E0,1.E0));
#150=VECTOR('',#149,3.E0);
#151=CARTESIAN_POINT('',(-4.1E0,-2.E-1,-1.5E0));
#152=LINE('',#151,#150);
#153=DIRECTION('',(1.E0,0.E0,0.E0));
#154=VECTOR('',#153,1.8E0);
#155=CARTESIAN_POINT('',(-4.1E0,-2.E-1,1.5E0));
#156=LINE('',#155,#154);
#157=DIRECTION('',(0.E0,0.E0,-1.E0));
#158=VECTOR('',#157,3.E0);
#159=CARTESIAN_POINT('',(-2.3E0,-2.E-1,1.5E0));
#160=LINE('',#159,#158);
#161=DIRECTION('',(0.E0,-1.E0,0.E0));
#162=VECTOR('',#161,2.7E0);
#163=CARTESIAN_POINT('',(4.1E0,2.5E0,1.5E0));
#164=LINE('',#163,#162);
#165=DIRECTION('',(0.E0,-1.E0,0.E0));
#166=VECTOR('',#165,2.7E0);
#167=CARTESIAN_POINT('',(4.1E0,2.5E0,-1.5E0));
#168=LINE('',#167,#166);
#169=DIRECTION('',(0.E0,1.E0,0.E0));
#170=VECTOR('',#169,4.E0);
#171=CARTESIAN_POINT('',(3.8E0,0.E0,-3.05E0));
#172=LINE('',#171,#170);
#173=DIRECTION('',(0.E0,0.E0,1.E0));
#174=VECTOR('',#173,6.1E0);
#175=CARTESIAN_POINT('',(-3.8E0,4.E0,-3.05E0));
#176=LINE('',#175,#174);
#177=DIRECTION('',(-1.E0,0.E0,0.E0));
#178=VECTOR('',#177,7.6E0);
#179=CARTESIAN_POINT('',(3.8E0,4.E0,-3.05E0));
#180=LINE('',#179,#178);
#181=DIRECTION('',(0.E0,0.E0,-1.E0));
#182=VECTOR('',#181,6.1E0);
#183=CARTESIAN_POINT('',(3.8E0,4.E0,3.05E0));
#184=LINE('',#183,#182);
#185=DIRECTION('',(1.E0,0.E0,0.E0));
#186=VECTOR('',#185,7.6E0);
#187=CARTESIAN_POINT('',(-3.8E0,4.E0,3.05E0));
#188=LINE('',#187,#186);
#189=DIRECTION('',(0.E0,1.E0,0.E0));
#190=VECTOR('',#189,4.E0);
#191=CARTESIAN_POINT('',(-3.8E0,0.E0,3.05E0));
#192=LINE('',#191,#190);
#193=CARTESIAN_POINT('',(-3.8E0,0.E0,3.05E0));
#194=CARTESIAN_POINT('',(3.8E0,0.E0,3.05E0));
#195=VERTEX_POINT('',#193);
#196=VERTEX_POINT('',#194);
#197=CARTESIAN_POINT('',(3.8E0,0.E0,-3.05E0));
#198=CARTESIAN_POINT('',(-3.8E0,0.E0,-3.05E0));
#199=VERTEX_POINT('',#197);
#200=VERTEX_POINT('',#198);
#201=CARTESIAN_POINT('',(-3.8E0,4.E0,-3.05E0));
#202=CARTESIAN_POINT('',(-3.8E0,4.E0,3.05E0));
#203=VERTEX_POINT('',#201);
#204=VERTEX_POINT('',#202);
#205=CARTESIAN_POINT('',(3.8E0,4.E0,3.05E0));
#206=VERTEX_POINT('',#205);
#207=CARTESIAN_POINT('',(3.8E0,4.E0,-3.05E0));
#208=VERTEX_POINT('',#207);
#209=CARTESIAN_POINT('',(4.1E0,2.5E0,1.5E0));
#210=CARTESIAN_POINT('',(4.1E0,2.5E0,-1.5E0));
#211=VERTEX_POINT('',#209);
#212=VERTEX_POINT('',#210);
#213=CARTESIAN_POINT('',(-4.1E0,2.5E0,-1.5E0));
#214=CARTESIAN_POINT('',(-4.1E0,2.5E0,1.5E0));
#215=VERTEX_POINT('',#213);
#216=VERTEX_POINT('',#214);
#217=CARTESIAN_POINT('',(2.3E0,-2.E-1,-1.5E0));
#218=CARTESIAN_POINT('',(2.3E0,-2.E-1,1.5E0));
#219=VERTEX_POINT('',#217);
#220=VERTEX_POINT('',#218);
#221=CARTESIAN_POINT('',(4.1E0,-2.E-1,1.5E0));
#222=VERTEX_POINT('',#221);
#223=CARTESIAN_POINT('',(4.1E0,-2.E-1,-1.5E0));
#224=VERTEX_POINT('',#223);
#225=CARTESIAN_POINT('',(-2.3E0,-2.E-1,-1.5E0));
#226=CARTESIAN_POINT('',(-4.1E0,-2.E-1,-1.5E0));
#227=VERTEX_POINT('',#225);
#228=VERTEX_POINT('',#226);
#229=CARTESIAN_POINT('',(-4.1E0,-2.E-1,1.5E0));
#230=VERTEX_POINT('',#229);
#231=CARTESIAN_POINT('',(-2.3E0,-2.E-1,1.5E0));
#232=VERTEX_POINT('',#231);
#233=CARTESIAN_POINT('',(2.3E0,0.E0,-1.5E0));
#234=CARTESIAN_POINT('',(2.3E0,0.E0,1.5E0));
#235=VERTEX_POINT('',#233);
#236=VERTEX_POINT('',#234);
#237=CARTESIAN_POINT('',(3.8E0,0.E0,1.5E0));
#238=VERTEX_POINT('',#237);
#239=CARTESIAN_POINT('',(3.8E0,0.E0,-1.5E0));
#240=VERTEX_POINT('',#239);
#241=CARTESIAN_POINT('',(-3.8E0,0.E0,-1.5E0));
#242=CARTESIAN_POINT('',(-2.3E0,0.E0,-1.5E0));
#243=VERTEX_POINT('',#241);
#244=VERTEX_POINT('',#242);
#245=CARTESIAN_POINT('',(-3.8E0,0.E0,1.5E0));
#246=CARTESIAN_POINT('',(-2.3E0,0.E0,1.5E0));
#247=VERTEX_POINT('',#245);
#248=VERTEX_POINT('',#246);
#249=CARTESIAN_POINT('',(-3.8E0,2.5E0,1.5E0));
#250=CARTESIAN_POINT('',(-3.8E0,2.5E0,-1.5E0));
#251=VERTEX_POINT('',#249);
#252=VERTEX_POINT('',#250);
#253=CARTESIAN_POINT('',(3.8E0,2.5E0,1.5E0));
#254=CARTESIAN_POINT('',(3.8E0,2.5E0,-1.5E0));
#255=VERTEX_POINT('',#253);
#256=VERTEX_POINT('',#254);
#257=CARTESIAN_POINT('',(0.E0,0.E0,0.E0));
#258=DIRECTION('',(0.E0,1.E0,0.E0));
#259=DIRECTION('',(1.E0,0.E0,0.E0));
#260=AXIS2_PLACEMENT_3D('',#257,#258,#259);
#261=PLANE('',#260);
#263=ORIENTED_EDGE('',*,*,#262,.F.);
#265=ORIENTED_EDGE('',*,*,#264,.F.);
#267=ORIENTED_EDGE('',*,*,#266,.T.);
#269=ORIENTED_EDGE('',*,*,#268,.T.);
#271=ORIENTED_EDGE('',*,*,#270,.T.);
#273=ORIENTED_EDGE('',*,*,#272,.T.);
#275=ORIENTED_EDGE('',*,*,#274,.F.);
#277=ORIENTED_EDGE('',*,*,#276,.F.);
#279=ORIENTED_EDGE('',*,*,#278,.T.);
#281=ORIENTED_EDGE('',*,*,#280,.T.);
#283=ORIENTED_EDGE('',*,*,#282,.T.);
#285=ORIENTED_EDGE('',*,*,#284,.T.);
#286=EDGE_LOOP('',(#263,#265,#267,#269,#271,#273,#275,#277,#279,#281,#283,
#285));
#287=FACE_OUTER_BOUND('',#286,.F.);
#289=CARTESIAN_POINT('',(2.3E0,2.5E0,-1.5E0));
#290=DIRECTION('',(-1.E0,0.E0,0.E0));
#291=DIRECTION('',(0.E0,0.E0,1.E0));
#292=AXIS2_PLACEMENT_3D('',#289,#290,#291);
#293=PLANE('',#292);
#294=ORIENTED_EDGE('',*,*,#262,.T.);
#296=ORIENTED_EDGE('',*,*,#295,.T.);
#298=ORIENTED_EDGE('',*,*,#297,.F.);
#300=ORIENTED_EDGE('',*,*,#299,.F.);
#301=EDGE_LOOP('',(#294,#296,#298,#300));
#302=FACE_OUTER_BOUND('',#301,.F.);
#304=CARTESIAN_POINT('',(2.3E0,2.5E0,1.5E0));
#305=DIRECTION('',(0.E0,0.E0,1.E0));
#306=DIRECTION('',(1.E0,0.E0,0.E0));
#307=AXIS2_PLACEMENT_3D('',#304,#305,#306);
#308=PLANE('',#307);
#309=ORIENTED_EDGE('',*,*,#284,.F.);
#311=ORIENTED_EDGE('',*,*,#310,.T.);
#313=ORIENTED_EDGE('',*,*,#312,.T.);
#315=ORIENTED_EDGE('',*,*,#314,.T.);
#317=ORIENTED_EDGE('',*,*,#316,.F.);
#318=ORIENTED_EDGE('',*,*,#295,.F.);
#319=EDGE_LOOP('',(#309,#311,#313,#315,#317,#318));
#320=FACE_OUTER_BOUND('',#319,.F.);
#322=CARTESIAN_POINT('',(3.8E0,0.E0,3.05E0));
#323=DIRECTION('',(1.E0,0.E0,0.E0));
#324=DIRECTION('',(0.E0,0.E0,-1.E0));
#325=AXIS2_PLACEMENT_3D('',#322,#323,#324);
#326=PLANE('',#325);
#328=ORIENTED_EDGE('',*,*,#327,.F.);
#329=ORIENTED_EDGE('',*,*,#310,.F.);
#330=ORIENTED_EDGE('',*,*,#282,.F.);
#332=ORIENTED_EDGE('',*,*,#331,.T.);
#334=ORIENTED_EDGE('',*,*,#333,.T.);
#336=ORIENTED_EDGE('',*,*,#335,.F.);
#337=ORIENTED_EDGE('',*,*,#266,.F.);
#339=ORIENTED_EDGE('',*,*,#338,.T.);
#340=EDGE_LOOP('',(#328,#329,#330,#332,#334,#336,#337,#339));
#341=FACE_OUTER_BOUND('',#340,.F.);
#343=CARTESIAN_POINT('',(0.E0,2.5E0,0.E0));
#344=DIRECTION('',(0.E0,1.E0,0.E0));
#345=DIRECTION('',(1.E0,0.E0,0.E0));
#346=AXIS2_PLACEMENT_3D('',#343,#344,#345);
#347=PLANE('',#346);
#349=ORIENTED_EDGE('',*,*,#348,.F.);
#351=ORIENTED_EDGE('',*,*,#350,.F.);
#353=ORIENTED_EDGE('',*,*,#352,.F.);
#355=ORIENTED_EDGE('',*,*,#354,.F.);
#356=EDGE_LOOP('',(#349,#351,#353,#355));
#357=FACE_OUTER_BOUND('',#356,.F.);
#359=CARTESIAN_POINT('',(0.E0,2.5E0,0.E0));
#360=DIRECTION('',(0.E0,1.E0,0.E0));
#361=DIRECTION('',(1.E0,0.E0,0.E0));
#362=AXIS2_PLACEMENT_3D('',#359,#360,#361);
#363=PLANE('',#362);
#364=ORIENTED_EDGE('',*,*,#327,.T.);
#366=ORIENTED_EDGE('',*,*,#365,.F.);
#368=ORIENTED_EDGE('',*,*,#367,.F.);
#369=ORIENTED_EDGE('',*,*,#312,.F.);
#370=EDGE_LOOP('',(#364,#366,#368,#369));
#371=FACE_OUTER_BOUND('',#370,.F.);
#373=CARTESIAN_POINT('',(-3.8E0,0.E0,-3.05E0));
#374=DIRECTION('',(-1.E0,0.E0,0.E0));
#375=DIRECTION('',(0.E0,0.E0,1.E0));
#376=AXIS2_PLACEMENT_3D('',#373,#374,#375);
#377=PLANE('',#376);
#378=ORIENTED_EDGE('',*,*,#348,.T.);
#380=ORIENTED_EDGE('',*,*,#379,.F.);
#381=ORIENTED_EDGE('',*,*,#270,.F.);
#383=ORIENTED_EDGE('',*,*,#382,.T.);
#385=ORIENTED_EDGE('',*,*,#384,.T.);
#387=ORIENTED_EDGE('',*,*,#386,.F.);
#388=ORIENTED_EDGE('',*,*,#278,.F.);
#390=ORIENTED_EDGE('',*,*,#389,.T.);
#391=EDGE_LOOP('',(#378,#380,#381,#383,#385,#387,#388,#390));
#392=FACE_OUTER_BOUND('',#391,.F.);
#394=CARTESIAN_POINT('',(-2.3E0,2.5E0,-1.5E0));
#395=DIRECTION('',(0.E0,0.E0,-1.E0));
#396=DIRECTION('',(-1.E0,0.E0,0.E0));
#397=AXIS2_PLACEMENT_3D('',#394,#395,#396);
#398=PLANE('',#397);
#399=ORIENTED_EDGE('',*,*,#272,.F.);
#400=ORIENTED_EDGE('',*,*,#379,.T.);
#401=ORIENTED_EDGE('',*,*,#354,.T.);
#403=ORIENTED_EDGE('',*,*,#402,.T.);
#405=ORIENTED_EDGE('',*,*,#404,.F.);
#407=ORIENTED_EDGE('',*,*,#406,.F.);
#408=EDGE_LOOP('',(#399,#400,#401,#403,#405,#407));
#409=FACE_OUTER_BOUND('',#408,.F.);
#411=CARTESIAN_POINT('',(-4.1E0,2.5E0,-1.5E0));
#412=DIRECTION('',(-1.E0,0.E0,0.E0));
#413=DIRECTION('',(0.E0,0.E0,1.E0));
#414=AXIS2_PLACEMENT_3D('',#411,#412,#413);
#415=PLANE('',#414);
#416=ORIENTED_EDGE('',*,*,#352,.T.);
#418=ORIENTED_EDGE('',*,*,#417,.T.);
#420=ORIENTED_EDGE('',*,*,#419,.F.);
#421=ORIENTED_EDGE('',*,*,#402,.F.);
#422=EDGE_LOOP('',(#416,#418,#420,#421));
#423=FACE_OUTER_BOUND('',#422,.F.);
#425=CARTESIAN_POINT('',(-4.1E0,2.5E0,1.5E0));
#426=DIRECTION('',(0.E0,0.E0,1.E0));
#427=DIRECTION('',(1.E0,0.E0,0.E0));
#428=AXIS2_PLACEMENT_3D('',#425,#426,#427);
#429=PLANE('',#428);
#430=ORIENTED_EDGE('',*,*,#276,.T.);
#432=ORIENTED_EDGE('',*,*,#431,.T.);
#434=ORIENTED_EDGE('',*,*,#433,.F.);
#435=ORIENTED_EDGE('',*,*,#417,.F.);
#436=ORIENTED_EDGE('',*,*,#350,.T.);
#437=ORIENTED_EDGE('',*,*,#389,.F.);
#438=EDGE_LOOP('',(#430,#432,#434,#435,#436,#437));
#439=FACE_OUTER_BOUND('',#438,.F.);
#441=CARTESIAN_POINT('',(-2.3E0,2.5E0,1.5E0));
#442=DIRECTION('',(1.E0,0.E0,0.E0));
#443=DIRECTION('',(0.E0,0.E0,-1.E0));
#444=AXIS2_PLACEMENT_3D('',#441,#442,#443);
#445=PLANE('',#444);
#446=ORIENTED_EDGE('',*,*,#274,.T.);
#447=ORIENTED_EDGE('',*,*,#406,.T.);
#449=ORIENTED_EDGE('',*,*,#448,.F.);
#450=ORIENTED_EDGE('',*,*,#431,.F.);
#451=EDGE_LOOP('',(#446,#447,#449,#450));
#452=FACE_OUTER_BOUND('',#451,.F.);
#454=CARTESIAN_POINT('',(0.E0,-2.E-1,0.E0));
#455=DIRECTION('',(0.E0,1.E0,0.E0));
#456=DIRECTION('',(1.E0,0.E0,0.E0));
#457=AXIS2_PLACEMENT_3D('',#454,#455,#456);
#458=PLANE('',#457);
#459=ORIENTED_EDGE('',*,*,#297,.T.);
#460=ORIENTED_EDGE('',*,*,#316,.T.);
#462=ORIENTED_EDGE('',*,*,#461,.T.);
#464=ORIENTED_EDGE('',*,*,#463,.T.);
#465=EDGE_LOOP('',(#459,#460,#462,#464));
#466=FACE_OUTER_BOUND('',#465,.F.);
#468=CARTESIAN_POINT('',(0.E0,-2.E-1,0.E0));
#469=DIRECTION('',(0.E0,1.E0,0.E0));
#470=DIRECTION('',(1.E0,0.E0,0.E0));
#471=AXIS2_PLACEMENT_3D('',#468,#469,#470);
#472=PLANE('',#471);
#473=ORIENTED_EDGE('',*,*,#404,.T.);
#474=ORIENTED_EDGE('',*,*,#419,.T.);
#475=ORIENTED_EDGE('',*,*,#433,.T.);
#476=ORIENTED_EDGE('',*,*,#448,.T.);
#477=EDGE_LOOP('',(#473,#474,#475,#476));
#478=FACE_OUTER_BOUND('',#477,.F.);
#480=CARTESIAN_POINT('',(4.1E0,2.5E0,1.5E0));
#481=DIRECTION('',(1.E0,0.E0,0.E0));
#482=DIRECTION('',(0.E0,0.E0,-1.E0));
#483=AXIS2_PLACEMENT_3D('',#480,#481,#482);
#484=PLANE('',#483);
#485=ORIENTED_EDGE('',*,*,#367,.T.);
#487=ORIENTED_EDGE('',*,*,#486,.T.);
#488=ORIENTED_EDGE('',*,*,#461,.F.);
#489=ORIENTED_EDGE('',*,*,#314,.F.);
#490=EDGE_LOOP('',(#485,#487,#488,#489));
#491=FACE_OUTER_BOUND('',#490,.F.);
#493=CARTESIAN_POINT('',(4.1E0,2.5E0,-1.5E0));
#494=DIRECTION('',(0.E0,0.E0,-1.E0));
#495=DIRECTION('',(-1.E0,0.E0,0.E0));
#496=AXIS2_PLACEMENT_3D('',#493,#494,#495);
#497=PLANE('',#496);
#498=ORIENTED_EDGE('',*,*,#264,.T.);
#499=ORIENTED_EDGE('',*,*,#299,.T.);
#500=ORIENTED_EDGE('',*,*,#463,.F.);
#501=ORIENTED_EDGE('',*,*,#486,.F.);
#502=ORIENTED_EDGE('',*,*,#365,.T.);
#503=ORIENTED_EDGE('',*,*,#338,.F.);
#504=EDGE_LOOP('',(#498,#499,#500,#501,#502,#503));
#505=FACE_OUTER_BOUND('',#504,.F.);
#507=CARTESIAN_POINT('',(3.8E0,0.E0,-3.05E0));
#508=DIRECTION('',(0.E0,0.E0,-1.E0));
#509=DIRECTION('',(-1.E0,0.E0,0.E0));
#510=AXIS2_PLACEMENT_3D('',#507,#508,#509);
#511=PLANE('',#510);
#512=ORIENTED_EDGE('',*,*,#268,.F.);
#513=ORIENTED_EDGE('',*,*,#335,.T.);
#515=ORIENTED_EDGE('',*,*,#514,.T.);
#516=ORIENTED_EDGE('',*,*,#382,.F.);
#517=EDGE_LOOP('',(#512,#513,#515,#516));
#518=FACE_OUTER_BOUND('',#517,.F.);
#520=CARTESIAN_POINT('',(0.E0,4.E0,0.E0));
#521=DIRECTION('',(0.E0,1.E0,0.E0));
#522=DIRECTION('',(1.E0,0.E0,0.E0));
#523=AXIS2_PLACEMENT_3D('',#520,#521,#522);
#524=PLANE('',#523);
#525=ORIENTED_EDGE('',*,*,#384,.F.);
#526=ORIENTED_EDGE('',*,*,#514,.F.);
#527=ORIENTED_EDGE('',*,*,#333,.F.);
#529=ORIENTED_EDGE('',*,*,#528,.F.);
#530=EDGE_LOOP('',(#525,#526,#527,#529));
#531=FACE_OUTER_BOUND('',#530,.F.);
#533=CARTESIAN_POINT('',(-3.8E0,0.E0,3.05E0));
#534=DIRECTION('',(0.E0,0.E0,1.E0));
#535=DIRECTION('',(1.E0,0.E0,0.E0));
#536=AXIS2_PLACEMENT_3D('',#533,#534,#535);
#537=PLANE('',#536);
#538=ORIENTED_EDGE('',*,*,#280,.F.);
#539=ORIENTED_EDGE('',*,*,#386,.T.);
#540=ORIENTED_EDGE('',*,*,#528,.T.);
#541=ORIENTED_EDGE('',*,*,#331,.F.);
#542=EDGE_LOOP('',(#538,#539,#540,#541));
#543=FACE_OUTER_BOUND('',#542,.F.);
#545=CLOSED_SHELL('',(#288,#303,#321,#342,#358,#372,#393,#410,#424,#440,#453,
#467,#479,#492,#506,#519,#532,#544));
#546=MANIFOLD_SOLID_BREP('',#545);
#548=DIMENSIONAL_EXPONENTS(0.E0,0.E0,0.E0,0.E0,0.E0,0.E0,0.E0);
#550=PLANE_ANGLE_MEASURE_WITH_UNIT(PLANE_ANGLE_MEASURE(1.745329251994E-2),#549);
#551=(CONVERSION_BASED_UNIT('DEGREE',#550)NAMED_UNIT(*)PLANE_ANGLE_UNIT());
#553=UNCERTAINTY_MEASURE_WITH_UNIT(LENGTH_MEASURE(4.603746832204E-4),#547,
'closure',
'Maximum model space distance between geometric entities at asserted connectivities');
#556=APPLICATION_CONTEXT(
'CONFIGURATION CONTROLLED 3D DESIGNS OF MECHANICAL PARTS AND ASSEMBLIES');
#557=APPLICATION_PROTOCOL_DEFINITION('international standard',
'config_control_design',1994,#556);
#558=DESIGN_CONTEXT('',#556,'design');
#559=MECHANICAL_CONTEXT('',#556,'mechanical');
#560=PRODUCT('SRP8040','SRP8040','NOT SPECIFIED',(#559));
#561=PRODUCT_DEFINITION_FORMATION_WITH_SPECIFIED_SOURCE('1','LAST_VERSION',#560,
.MADE.);
#565=PRODUCT_CATEGORY('part','');
#566=PRODUCT_RELATED_PRODUCT_CATEGORY('detail','',(#560));
#567=PRODUCT_CATEGORY_RELATIONSHIP('','',#565,#566);
#568=SECURITY_CLASSIFICATION_LEVEL('unclassified');
#569=SECURITY_CLASSIFICATION('','',#568);
#570=CC_DESIGN_SECURITY_CLASSIFICATION(#569,(#561));
#571=APPROVAL_STATUS('approved');
#572=APPROVAL(#571,'');
#573=CC_DESIGN_APPROVAL(#572,(#569,#561,#562));
#574=CALENDAR_DATE(112,13,7);
#575=COORDINATED_UNIVERSAL_TIME_OFFSET(7,0,.BEHIND.);
#576=LOCAL_TIME(15,42,1.E1,#575);
#577=DATE_AND_TIME(#574,#576);
#578=APPROVAL_DATE_TIME(#577,#572);
#579=DATE_TIME_ROLE('creation_date');
#580=CC_DESIGN_DATE_AND_TIME_ASSIGNMENT(#577,#579,(#562));
#581=DATE_TIME_ROLE('classification_date');
#582=CC_DESIGN_DATE_AND_TIME_ASSIGNMENT(#577,#581,(#569));
#583=PERSON('UNSPECIFIED','UNSPECIFIED',$,$,$,$);
#584=ORGANIZATION('UNSPECIFIED','UNSPECIFIED','UNSPECIFIED');
#585=PERSON_AND_ORGANIZATION(#583,#584);
#586=APPROVAL_ROLE('approver');
#587=APPROVAL_PERSON_ORGANIZATION(#585,#572,#586);
#588=PERSON_AND_ORGANIZATION_ROLE('creator');
#589=CC_DESIGN_PERSON_AND_ORGANIZATION_ASSIGNMENT(#585,#588,(#561,#562));
#590=PERSON_AND_ORGANIZATION_ROLE('design_supplier');
#591=CC_DESIGN_PERSON_AND_ORGANIZATION_ASSIGNMENT(#585,#590,(#561));
#592=PERSON_AND_ORGANIZATION_ROLE('classification_officer');
#593=CC_DESIGN_PERSON_AND_ORGANIZATION_ASSIGNMENT(#585,#592,(#569));
#594=PERSON_AND_ORGANIZATION_ROLE('design_owner');
#595=CC_DESIGN_PERSON_AND_ORGANIZATION_ASSIGNMENT(#585,#594,(#560));
#262=EDGE_CURVE('',#235,#236,#4,.T.);
#264=EDGE_CURVE('',#240,#235,#8,.T.);
#266=EDGE_CURVE('',#240,#199,#12,.T.);
#268=EDGE_CURVE('',#199,#200,#16,.T.);
#270=EDGE_CURVE('',#200,#243,#20,.T.);
#272=EDGE_CURVE('',#243,#244,#24,.T.);
#274=EDGE_CURVE('',#248,#244,#28,.T.);
#276=EDGE_CURVE('',#247,#248,#32,.T.);
#278=EDGE_CURVE('',#247,#195,#36,.T.);
#280=EDGE_CURVE('',#195,#196,#40,.T.);
#282=EDGE_CURVE('',#196,#238,#44,.T.);
#284=EDGE_CURVE('',#238,#236,#48,.T.);
#288=ADVANCED_FACE('',(#287),#261,.F.);
#295=EDGE_CURVE('',#236,#220,#56,.T.);
#297=EDGE_CURVE('',#219,#220,#132,.T.);
#299=EDGE_CURVE('',#235,#219,#52,.T.);
#303=ADVANCED_FACE('',(#302),#293,.T.);
#310=EDGE_CURVE('',#238,#255,#64,.T.);
#312=EDGE_CURVE('',#255,#211,#96,.T.);
#314=EDGE_CURVE('',#211,#222,#164,.T.);
#316=EDGE_CURVE('',#220,#222,#136,.T.);
#321=ADVANCED_FACE('',(#320),#308,.T.);
#327=EDGE_CURVE('',#255,#256,#60,.T.);
#331=EDGE_CURVE('',#196,#206,#68,.T.);
#333=EDGE_CURVE('',#206,#208,#184,.T.);
#335=EDGE_CURVE('',#199,#208,#172,.T.);
#338=EDGE_CURVE('',#240,#256,#72,.T.);
#342=ADVANCED_FACE('',(#341),#326,.T.);
#348=EDGE_CURVE('',#251,#252,#100,.T.);
#350=EDGE_CURVE('',#216,#251,#76,.T.);
#352=EDGE_CURVE('',#215,#216,#80,.T.);
#354=EDGE_CURVE('',#252,#215,#84,.T.);
#358=ADVANCED_FACE('',(#357),#347,.T.);
#365=EDGE_CURVE('',#212,#256,#88,.T.);
#367=EDGE_CURVE('',#211,#212,#92,.T.);
#372=ADVANCED_FACE('',(#371),#363,.T.);
#379=EDGE_CURVE('',#243,#252,#104,.T.);
#382=EDGE_CURVE('',#200,#203,#108,.T.);
#384=EDGE_CURVE('',#203,#204,#176,.T.);
#386=EDGE_CURVE('',#195,#204,#192,.T.);
#389=EDGE_CURVE('',#247,#251,#112,.T.);
#393=ADVANCED_FACE('',(#392),#377,.T.);
#402=EDGE_CURVE('',#215,#228,#120,.T.);
#404=EDGE_CURVE('',#227,#228,#148,.T.);
#406=EDGE_CURVE('',#244,#227,#116,.T.);
#410=ADVANCED_FACE('',(#409),#398,.T.);
#417=EDGE_CURVE('',#216,#230,#124,.T.);
#419=EDGE_CURVE('',#228,#230,#152,.T.);
#424=ADVANCED_FACE('',(#423),#415,.T.);
#431=EDGE_CURVE('',#248,#232,#128,.T.);
#433=EDGE_CURVE('',#230,#232,#156,.T.);
#440=ADVANCED_FACE('',(#439),#429,.T.);
#448=EDGE_CURVE('',#232,#227,#160,.T.);
#453=ADVANCED_FACE('',(#452),#445,.T.);
#461=EDGE_CURVE('',#222,#224,#140,.T.);
#463=EDGE_CURVE('',#224,#219,#144,.T.);
#467=ADVANCED_FACE('',(#466),#458,.F.);
#479=ADVANCED_FACE('',(#478),#472,.F.);
#486=EDGE_CURVE('',#212,#224,#168,.T.);
#492=ADVANCED_FACE('',(#491),#484,.T.);
#506=ADVANCED_FACE('',(#505),#497,.T.);
#514=EDGE_CURVE('',#208,#203,#180,.T.);
#519=ADVANCED_FACE('',(#518),#511,.T.);
#528=EDGE_CURVE('',#204,#206,#188,.T.);
#532=ADVANCED_FACE('',(#531),#524,.T.);
#544=ADVANCED_FACE('',(#543),#537,.T.);
#547=(LENGTH_UNIT()NAMED_UNIT(*)SI_UNIT(.MILLI.,.METRE.));
#549=(NAMED_UNIT(*)PLANE_ANGLE_UNIT()SI_UNIT($,.RADIAN.));
#552=(NAMED_UNIT(*)SI_UNIT($,.STERADIAN.)SOLID_ANGLE_UNIT());
#554=(GEOMETRIC_REPRESENTATION_CONTEXT(3)GLOBAL_UNCERTAINTY_ASSIGNED_CONTEXT((
#553))GLOBAL_UNIT_ASSIGNED_CONTEXT((#547,#551,#552))REPRESENTATION_CONTEXT
('ID1','3'));
#555=ADVANCED_BREP_SHAPE_REPRESENTATION('',(#546),#554);
#562=PRODUCT_DEFINITION('design','',#561,#558);
#563=PRODUCT_DEFINITION_SHAPE('','SHAPE FOR SRP8040.',#562);
#564=SHAPE_DEFINITION_REPRESENTATION(#563,#555);
ENDSEC;
END-ISO-10303-21;
