ISO-10303-21;
HEADER;
FILE_DESCRIPTION((''),'2;1');
FILE_NAME('EMI-T','2012-08-21T',('ryans'),('Bourns, Inc.'),
'PRO/ENGINEER BY PARAMETRIC TECHNOLOGY CORPORATION, 2010100',
'PRO/ENGINEER BY PARAMETRIC TECHNOLOGY CORPORATION, 2010100','');
FILE_SCHEMA(('CONFIG_CONTROL_DESIGN'));
ENDSEC;
DATA;
#1=DIRECTION('',(1.E0,0.E0,0.E0));
#2=VECTOR('',#1,9.E0);
#3=CARTESIAN_POINT('',(-4.5E0,3.397306657892E0,-1.6E0));
#4=LINE('',#3,#2);
#5=DIRECTION('',(0.E0,-1.E0,0.E0));
#6=VECTOR('',#5,7.4E0);
#7=CARTESIAN_POINT('',(-4.5E0,3.397306657892E0,-1.6E0));
#8=LINE('',#7,#6);
#9=DIRECTION('',(1.E0,0.E0,0.E0));
#10=VECTOR('',#9,3.25E0);
#11=CARTESIAN_POINT('',(-4.5E0,-4.002693342108E0,-1.6E0));
#12=LINE('',#11,#10);
#13=DIRECTION('',(0.E0,1.E0,0.E0));
#14=VECTOR('',#13,1.E0);
#15=CARTESIAN_POINT('',(-1.25E0,-4.002693342108E0,-1.6E0));
#16=LINE('',#15,#14);
#17=DIRECTION('',(1.E0,0.E0,0.E0));
#18=VECTOR('',#17,2.5E0);
#19=CARTESIAN_POINT('',(-1.25E0,-3.002693342108E0,-1.6E0));
#20=LINE('',#19,#18);
#21=DIRECTION('',(0.E0,-1.E0,0.E0));
#22=VECTOR('',#21,1.E0);
#23=CARTESIAN_POINT('',(1.25E0,-3.002693342108E0,-1.6E0));
#24=LINE('',#23,#22);
#25=DIRECTION('',(1.E0,0.E0,0.E0));
#26=VECTOR('',#25,3.25E0);
#27=CARTESIAN_POINT('',(1.25E0,-4.002693342108E0,-1.6E0));
#28=LINE('',#27,#26);
#29=DIRECTION('',(0.E0,1.E0,0.E0));
#30=VECTOR('',#29,7.4E0);
#31=CARTESIAN_POINT('',(4.5E0,-4.002693342108E0,-1.6E0));
#32=LINE('',#31,#30);
#33=DIRECTION('',(5.773502691896E-1,-5.773502691896E-1,-5.773502691896E-1));
#34=VECTOR('',#33,1.039230484541E0);
#35=CARTESIAN_POINT('',(3.9E0,3.997306657892E0,-1.E0));
#36=LINE('',#35,#34);
#37=DIRECTION('',(-1.E0,0.E0,0.E0));
#38=VECTOR('',#37,7.8E0);
#39=CARTESIAN_POINT('',(3.9E0,3.997306657892E0,1.E0));
#40=LINE('',#39,#38);
#41=DIRECTION('',(0.E0,0.E0,-1.E0));
#42=VECTOR('',#41,2.E0);
#43=CARTESIAN_POINT('',(-3.9E0,3.997306657892E0,1.E0));
#44=LINE('',#43,#42);
#45=DIRECTION('',(1.E0,0.E0,0.E0));
#46=VECTOR('',#45,7.8E0);
#47=CARTESIAN_POINT('',(-3.9E0,3.997306657892E0,-1.E0));
#48=LINE('',#47,#46);
#49=DIRECTION('',(0.E0,0.E0,-1.E0));
#50=VECTOR('',#49,2.E0);
#51=CARTESIAN_POINT('',(3.9E0,3.997306657892E0,1.E0));
#52=LINE('',#51,#50);
#53=DIRECTION('',(-5.773502691896E-1,-5.773502691896E-1,5.773502691896E-1));
#54=VECTOR('',#53,1.039230484541E0);
#55=CARTESIAN_POINT('',(-3.9E0,3.997306657892E0,1.E0));
#56=LINE('',#55,#54);
#57=DIRECTION('',(5.773502691896E-1,-5.773502691896E-1,5.773502691896E-1));
#58=VECTOR('',#57,1.039230484541E0);
#59=CARTESIAN_POINT('',(3.9E0,3.997306657892E0,1.E0));
#60=LINE('',#59,#58);
#61=DIRECTION('',(0.E0,0.E0,1.E0));
#62=VECTOR('',#61,3.2E0);
#63=CARTESIAN_POINT('',(4.5E0,-4.002693342108E0,-1.6E0));
#64=LINE('',#63,#62);
#65=DIRECTION('',(0.E0,0.E0,-1.E0));
#66=VECTOR('',#65,3.2E0);
#67=CARTESIAN_POINT('',(4.5E0,3.397306657892E0,1.6E0));
#68=LINE('',#67,#66);
#69=DIRECTION('',(0.E0,0.E0,1.E0));
#70=VECTOR('',#69,3.2E0);
#71=CARTESIAN_POINT('',(1.25E0,-4.002693342108E0,-1.6E0));
#72=LINE('',#71,#70);
#73=CARTESIAN_POINT('',(2.5E0,-4.002693342108E0,0.E0));
#74=DIRECTION('',(0.E0,-1.E0,0.E0));
#75=DIRECTION('',(-1.E0,0.E0,0.E0));
#76=AXIS2_PLACEMENT_3D('',#73,#74,#75);
#78=CARTESIAN_POINT('',(2.5E0,-4.002693342108E0,0.E0));
#79=DIRECTION('',(0.E0,-1.E0,0.E0));
#80=DIRECTION('',(1.E0,0.E0,0.E0));
#81=AXIS2_PLACEMENT_3D('',#78,#79,#80);
#83=DIRECTION('',(0.E0,0.E0,1.E0));
#84=VECTOR('',#83,3.2E0);
#85=CARTESIAN_POINT('',(1.25E0,-3.002693342108E0,-1.6E0));
#86=LINE('',#85,#84);
#87=DIRECTION('',(0.E0,0.E0,1.E0));
#88=VECTOR('',#87,3.2E0);
#89=CARTESIAN_POINT('',(-1.25E0,-3.002693342108E0,-1.6E0));
#90=LINE('',#89,#88);
#91=CARTESIAN_POINT('',(0.E0,-3.002693342108E0,0.E0));
#92=DIRECTION('',(0.E0,-1.E0,0.E0));
#93=DIRECTION('',(-1.E0,0.E0,0.E0));
#94=AXIS2_PLACEMENT_3D('',#91,#92,#93);
#96=CARTESIAN_POINT('',(0.E0,-3.002693342108E0,0.E0));
#97=DIRECTION('',(0.E0,-1.E0,0.E0));
#98=DIRECTION('',(1.E0,0.E0,0.E0));
#99=AXIS2_PLACEMENT_3D('',#96,#97,#98);
#101=DIRECTION('',(0.E0,0.E0,1.E0));
#102=VECTOR('',#101,3.2E0);
#103=CARTESIAN_POINT('',(-1.25E0,-4.002693342108E0,-1.6E0));
#104=LINE('',#103,#102);
#105=DIRECTION('',(0.E0,0.E0,1.E0));
#106=VECTOR('',#105,3.2E0);
#107=CARTESIAN_POINT('',(-4.5E0,-4.002693342108E0,-1.6E0));
#108=LINE('',#107,#106);
#109=CARTESIAN_POINT('',(-2.5E0,-4.002693342108E0,0.E0));
#110=DIRECTION('',(0.E0,-1.E0,0.E0));
#111=DIRECTION('',(-1.E0,0.E0,0.E0));
#112=AXIS2_PLACEMENT_3D('',#109,#110,#111);
#114=CARTESIAN_POINT('',(-2.5E0,-4.002693342108E0,0.E0));
#115=DIRECTION('',(0.E0,-1.E0,0.E0));
#116=DIRECTION('',(1.E0,0.E0,0.E0));
#117=AXIS2_PLACEMENT_3D('',#114,#115,#116);
#119=DIRECTION('',(0.E0,0.E0,-1.E0));
#120=VECTOR('',#119,3.2E0);
#121=CARTESIAN_POINT('',(-4.5E0,3.397306657892E0,1.6E0));
#122=LINE('',#121,#120);
#123=DIRECTION('',(-5.773502691896E-1,-5.773502691896E-1,-5.773502691896E-1));
#124=VECTOR('',#123,1.039230484541E0);
#125=CARTESIAN_POINT('',(-3.9E0,3.997306657892E0,-1.E0));
#126=LINE('',#125,#124);
#127=DIRECTION('',(-1.E0,0.E0,0.E0));
#128=VECTOR('',#127,9.E0);
#129=CARTESIAN_POINT('',(4.5E0,3.397306657892E0,1.6E0));
#130=LINE('',#129,#128);
#131=DIRECTION('',(0.E0,1.E0,0.E0));
#132=VECTOR('',#131,7.4E0);
#133=CARTESIAN_POINT('',(4.5E0,-4.002693342108E0,1.6E0));
#134=LINE('',#133,#132);
#135=DIRECTION('',(1.E0,0.E0,0.E0));
#136=VECTOR('',#135,3.25E0);
#137=CARTESIAN_POINT('',(1.25E0,-4.002693342108E0,1.6E0));
#138=LINE('',#137,#136);
#139=DIRECTION('',(0.E0,-1.E0,0.E0));
#140=VECTOR('',#139,1.E0);
#141=CARTESIAN_POINT('',(1.25E0,-3.002693342108E0,1.6E0));
#142=LINE('',#141,#140);
#143=DIRECTION('',(1.E0,0.E0,0.E0));
#144=VECTOR('',#143,2.5E0);
#145=CARTESIAN_POINT('',(-1.25E0,-3.002693342108E0,1.6E0));
#146=LINE('',#145,#144);
#147=DIRECTION('',(0.E0,1.E0,0.E0));
#148=VECTOR('',#147,1.E0);
#149=CARTESIAN_POINT('',(-1.25E0,-4.002693342108E0,1.6E0));
#150=LINE('',#149,#148);
#151=DIRECTION('',(1.E0,0.E0,0.E0));
#152=VECTOR('',#151,3.25E0);
#153=CARTESIAN_POINT('',(-4.5E0,-4.002693342108E0,1.6E0));
#154=LINE('',#153,#152);
#155=DIRECTION('',(0.E0,-1.E0,0.E0));
#156=VECTOR('',#155,7.4E0);
#157=CARTESIAN_POINT('',(-4.5E0,3.397306657892E0,1.6E0));
#158=LINE('',#157,#156);
#159=DIRECTION('',(0.E0,-1.E0,0.E0));
#160=VECTOR('',#159,2.4E1);
#161=CARTESIAN_POINT('',(-2.75E0,-4.002693342108E0,0.E0));
#162=LINE('',#161,#160);
#163=DIRECTION('',(0.E0,-1.E0,0.E0));
#164=VECTOR('',#163,2.4E1);
#165=CARTESIAN_POINT('',(-2.25E0,-4.002693342108E0,0.E0));
#166=LINE('',#165,#164);
#167=CARTESIAN_POINT('',(0.E0,-2.800269334211E1,0.E0));
#168=DIRECTION('',(0.E0,-1.E0,0.E0));
#169=DIRECTION('',(-1.E0,0.E0,0.E0));
#170=AXIS2_PLACEMENT_3D('',#167,#168,#169);
#172=CARTESIAN_POINT('',(0.E0,-2.800269334211E1,0.E0));
#173=DIRECTION('',(0.E0,-1.E0,0.E0));
#174=DIRECTION('',(1.E0,0.E0,0.E0));
#175=AXIS2_PLACEMENT_3D('',#172,#173,#174);
#177=CARTESIAN_POINT('',(-2.5E0,-2.800269334211E1,0.E0));
#178=DIRECTION('',(0.E0,-1.E0,0.E0));
#179=DIRECTION('',(-1.E0,0.E0,0.E0));
#180=AXIS2_PLACEMENT_3D('',#177,#178,#179);
#182=CARTESIAN_POINT('',(-2.5E0,-2.800269334211E1,0.E0));
#183=DIRECTION('',(0.E0,-1.E0,0.E0));
#184=DIRECTION('',(1.E0,0.E0,0.E0));
#185=AXIS2_PLACEMENT_3D('',#182,#183,#184);
#187=CARTESIAN_POINT('',(2.5E0,-2.800269334211E1,0.E0));
#188=DIRECTION('',(0.E0,-1.E0,0.E0));
#189=DIRECTION('',(-1.E0,0.E0,0.E0));
#190=AXIS2_PLACEMENT_3D('',#187,#188,#189);
#192=CARTESIAN_POINT('',(2.5E0,-2.800269334211E1,0.E0));
#193=DIRECTION('',(0.E0,-1.E0,0.E0));
#194=DIRECTION('',(1.E0,0.E0,0.E0));
#195=AXIS2_PLACEMENT_3D('',#192,#193,#194);
#197=DIRECTION('',(0.E0,-1.E0,0.E0));
#198=VECTOR('',#197,2.5E1);
#199=CARTESIAN_POINT('',(-2.5E-1,-3.002693342108E0,0.E0));
#200=LINE('',#199,#198);
#201=DIRECTION('',(0.E0,-1.E0,0.E0));
#202=VECTOR('',#201,2.5E1);
#203=CARTESIAN_POINT('',(2.5E-1,-3.002693342108E0,0.E0));
#204=LINE('',#203,#202);
#205=DIRECTION('',(0.E0,-1.E0,0.E0));
#206=VECTOR('',#205,2.4E1);
#207=CARTESIAN_POINT('',(2.25E0,-4.002693342108E0,0.E0));
#208=LINE('',#207,#206);
#209=DIRECTION('',(0.E0,-1.E0,0.E0));
#210=VECTOR('',#209,2.4E1);
#211=CARTESIAN_POINT('',(2.75E0,-4.002693342108E0,0.E0));
#212=LINE('',#211,#210);
#213=CARTESIAN_POINT('',(3.9E0,3.997306657892E0,1.E0));
#214=CARTESIAN_POINT('',(-3.9E0,3.997306657892E0,1.E0));
#215=VERTEX_POINT('',#213);
#216=VERTEX_POINT('',#214);
#217=CARTESIAN_POINT('',(4.5E0,3.397306657892E0,1.6E0));
#218=CARTESIAN_POINT('',(-4.5E0,3.397306657892E0,1.6E0));
#219=VERTEX_POINT('',#217);
#220=VERTEX_POINT('',#218);
#221=CARTESIAN_POINT('',(-3.9E0,3.997306657892E0,-1.E0));
#222=CARTESIAN_POINT('',(3.9E0,3.997306657892E0,-1.E0));
#223=VERTEX_POINT('',#221);
#224=VERTEX_POINT('',#222);
#225=CARTESIAN_POINT('',(-4.5E0,3.397306657892E0,-1.6E0));
#226=CARTESIAN_POINT('',(4.5E0,3.397306657892E0,-1.6E0));
#227=VERTEX_POINT('',#225);
#228=VERTEX_POINT('',#226);
#229=CARTESIAN_POINT('',(-4.5E0,-4.002693342108E0,-1.6E0));
#230=VERTEX_POINT('',#229);
#231=CARTESIAN_POINT('',(4.5E0,-4.002693342108E0,-1.6E0));
#232=VERTEX_POINT('',#231);
#233=CARTESIAN_POINT('',(-4.5E0,-4.002693342108E0,1.6E0));
#234=VERTEX_POINT('',#233);
#235=CARTESIAN_POINT('',(4.5E0,-4.002693342108E0,1.6E0));
#236=VERTEX_POINT('',#235);
#237=CARTESIAN_POINT('',(-1.25E0,-4.002693342108E0,-1.6E0));
#238=VERTEX_POINT('',#237);
#239=CARTESIAN_POINT('',(-1.25E0,-3.002693342108E0,-1.6E0));
#240=VERTEX_POINT('',#239);
#241=CARTESIAN_POINT('',(1.25E0,-3.002693342108E0,-1.6E0));
#242=VERTEX_POINT('',#241);
#243=CARTESIAN_POINT('',(1.25E0,-4.002693342108E0,-1.6E0));
#244=VERTEX_POINT('',#243);
#245=CARTESIAN_POINT('',(-1.25E0,-4.002693342108E0,1.6E0));
#246=VERTEX_POINT('',#245);
#247=CARTESIAN_POINT('',(-1.25E0,-3.002693342108E0,1.6E0));
#248=VERTEX_POINT('',#247);
#249=CARTESIAN_POINT('',(1.25E0,-3.002693342108E0,1.6E0));
#250=VERTEX_POINT('',#249);
#251=CARTESIAN_POINT('',(1.25E0,-4.002693342108E0,1.6E0));
#252=VERTEX_POINT('',#251);
#253=CARTESIAN_POINT('',(-2.5E-1,-2.800269334211E1,0.E0));
#254=CARTESIAN_POINT('',(2.5E-1,-2.800269334211E1,0.E0));
#255=VERTEX_POINT('',#253);
#256=VERTEX_POINT('',#254);
#257=CARTESIAN_POINT('',(-2.75E0,-2.800269334211E1,0.E0));
#258=CARTESIAN_POINT('',(-2.25E0,-2.800269334211E1,0.E0));
#259=VERTEX_POINT('',#257);
#260=VERTEX_POINT('',#258);
#261=CARTESIAN_POINT('',(2.25E0,-2.800269334211E1,0.E0));
#262=CARTESIAN_POINT('',(2.75E0,-2.800269334211E1,0.E0));
#263=VERTEX_POINT('',#261);
#264=VERTEX_POINT('',#262);
#265=CARTESIAN_POINT('',(-2.75E0,-4.002693342108E0,0.E0));
#266=CARTESIAN_POINT('',(-2.25E0,-4.002693342108E0,0.E0));
#267=VERTEX_POINT('',#265);
#268=VERTEX_POINT('',#266);
#269=CARTESIAN_POINT('',(-2.5E-1,-3.002693342108E0,0.E0));
#270=CARTESIAN_POINT('',(2.5E-1,-3.002693342108E0,0.E0));
#271=VERTEX_POINT('',#269);
#272=VERTEX_POINT('',#270);
#273=CARTESIAN_POINT('',(2.25E0,-4.002693342108E0,0.E0));
#274=CARTESIAN_POINT('',(2.75E0,-4.002693342108E0,0.E0));
#275=VERTEX_POINT('',#273);
#276=VERTEX_POINT('',#274);
#277=CARTESIAN_POINT('',(0.E0,0.E0,-1.6E0));
#278=DIRECTION('',(0.E0,0.E0,1.E0));
#279=DIRECTION('',(1.E0,0.E0,0.E0));
#280=AXIS2_PLACEMENT_3D('',#277,#278,#279);
#281=PLANE('',#280);
#283=ORIENTED_EDGE('',*,*,#282,.F.);
#285=ORIENTED_EDGE('',*,*,#284,.T.);
#287=ORIENTED_EDGE('',*,*,#286,.T.);
#289=ORIENTED_EDGE('',*,*,#288,.T.);
#291=ORIENTED_EDGE('',*,*,#290,.T.);
#293=ORIENTED_EDGE('',*,*,#292,.T.);
#295=ORIENTED_EDGE('',*,*,#294,.T.);
#297=ORIENTED_EDGE('',*,*,#296,.T.);
#298=EDGE_LOOP('',(#283,#285,#287,#289,#291,#293,#295,#297));
#299=FACE_OUTER_BOUND('',#298,.F.);
#301=CARTESIAN_POINT('',(0.E0,3.697306657892E0,-1.3E0));
#302=DIRECTION('',(0.E0,7.071067811865E-1,-7.071067811865E-1));
#303=DIRECTION('',(0.E0,7.071067811865E-1,7.071067811865E-1));
#304=AXIS2_PLACEMENT_3D('',#301,#302,#303);
#305=PLANE('',#304);
#307=ORIENTED_EDGE('',*,*,#306,.F.);
#309=ORIENTED_EDGE('',*,*,#308,.T.);
#310=ORIENTED_EDGE('',*,*,#282,.T.);
#312=ORIENTED_EDGE('',*,*,#311,.F.);
#313=EDGE_LOOP('',(#307,#309,#310,#312));
#314=FACE_OUTER_BOUND('',#313,.F.);
#316=CARTESIAN_POINT('',(4.5E0,3.997306657892E0,-1.6E0));
#317=DIRECTION('',(0.E0,1.E0,0.E0));
#318=DIRECTION('',(-1.E0,0.E0,0.E0));
#319=AXIS2_PLACEMENT_3D('',#316,#317,#318);
#320=PLANE('',#319);
#322=ORIENTED_EDGE('',*,*,#321,.T.);
#324=ORIENTED_EDGE('',*,*,#323,.T.);
#325=ORIENTED_EDGE('',*,*,#306,.T.);
#327=ORIENTED_EDGE('',*,*,#326,.F.);
#328=EDGE_LOOP('',(#322,#324,#325,#327));
#329=FACE_OUTER_BOUND('',#328,.F.);
#331=CARTESIAN_POINT('',(0.E0,3.697306657892E0,1.3E0));
#332=DIRECTION('',(0.E0,7.071067811865E-1,7.071067811865E-1));
#333=DIRECTION('',(0.E0,7.071067811865E-1,-7.071067811865E-1));
#334=AXIS2_PLACEMENT_3D('',#331,#332,#333);
#335=PLANE('',#334);
#336=ORIENTED_EDGE('',*,*,#321,.F.);
#338=ORIENTED_EDGE('',*,*,#337,.T.);
#340=ORIENTED_EDGE('',*,*,#339,.T.);
#342=ORIENTED_EDGE('',*,*,#341,.F.);
#343=EDGE_LOOP('',(#336,#338,#340,#342));
#344=FACE_OUTER_BOUND('',#343,.F.);
#346=CARTESIAN_POINT('',(4.2E0,3.697306657892E0,0.E0));
#347=DIRECTION('',(7.071067811865E-1,7.071067811865E-1,0.E0));
#348=DIRECTION('',(7.071067811865E-1,-7.071067811865E-1,0.E0));
#349=AXIS2_PLACEMENT_3D('',#346,#347,#348);
#350=PLANE('',#349);
#352=ORIENTED_EDGE('',*,*,#351,.F.);
#353=ORIENTED_EDGE('',*,*,#337,.F.);
#354=ORIENTED_EDGE('',*,*,#326,.T.);
#355=ORIENTED_EDGE('',*,*,#311,.T.);
#356=EDGE_LOOP('',(#352,#353,#354,#355));
#357=FACE_OUTER_BOUND('',#356,.F.);
#359=CARTESIAN_POINT('',(4.5E0,-4.002693342108E0,-1.6E0));
#360=DIRECTION('',(1.E0,0.E0,0.E0));
#361=DIRECTION('',(0.E0,1.E0,0.E0));
#362=AXIS2_PLACEMENT_3D('',#359,#360,#361);
#363=PLANE('',#362);
#364=ORIENTED_EDGE('',*,*,#296,.F.);
#366=ORIENTED_EDGE('',*,*,#365,.T.);
#368=ORIENTED_EDGE('',*,*,#367,.T.);
#369=ORIENTED_EDGE('',*,*,#351,.T.);
#370=EDGE_LOOP('',(#364,#366,#368,#369));
#371=FACE_OUTER_BOUND('',#370,.F.);
#373=CARTESIAN_POINT('',(1.25E0,-4.002693342108E0,-1.6E0));
#374=DIRECTION('',(0.E0,-1.E0,0.E0));
#375=DIRECTION('',(1.E0,0.E0,0.E0));
#376=AXIS2_PLACEMENT_3D('',#373,#374,#375);
#377=PLANE('',#376);
#378=ORIENTED_EDGE('',*,*,#294,.F.);
#380=ORIENTED_EDGE('',*,*,#379,.T.);
#382=ORIENTED_EDGE('',*,*,#381,.T.);
#383=ORIENTED_EDGE('',*,*,#365,.F.);
#384=EDGE_LOOP('',(#378,#380,#382,#383));
#385=FACE_OUTER_BOUND('',#384,.F.);
#387=ORIENTED_EDGE('',*,*,#386,.T.);
#389=ORIENTED_EDGE('',*,*,#388,.T.);
#390=EDGE_LOOP('',(#387,#389));
#391=FACE_BOUND('',#390,.F.);
#393=CARTESIAN_POINT('',(1.25E0,-3.002693342108E0,-1.6E0));
#394=DIRECTION('',(-1.E0,0.E0,0.E0));
#395=DIRECTION('',(0.E0,-1.E0,0.E0));
#396=AXIS2_PLACEMENT_3D('',#393,#394,#395);
#397=PLANE('',#396);
#398=ORIENTED_EDGE('',*,*,#292,.F.);
#400=ORIENTED_EDGE('',*,*,#399,.T.);
#402=ORIENTED_EDGE('',*,*,#401,.T.);
#403=ORIENTED_EDGE('',*,*,#379,.F.);
#404=EDGE_LOOP('',(#398,#400,#402,#403));
#405=FACE_OUTER_BOUND('',#404,.F.);
#407=CARTESIAN_POINT('',(-1.25E0,-3.002693342108E0,-1.6E0));
#408=DIRECTION('',(0.E0,-1.E0,0.E0));
#409=DIRECTION('',(1.E0,0.E0,0.E0));
#410=AXIS2_PLACEMENT_3D('',#407,#408,#409);
#411=PLANE('',#410);
#412=ORIENTED_EDGE('',*,*,#290,.F.);
#414=ORIENTED_EDGE('',*,*,#413,.T.);
#416=ORIENTED_EDGE('',*,*,#415,.T.);
#417=ORIENTED_EDGE('',*,*,#399,.F.);
#418=EDGE_LOOP('',(#412,#414,#416,#417));
#419=FACE_OUTER_BOUND('',#418,.F.);
#421=ORIENTED_EDGE('',*,*,#420,.T.);
#423=ORIENTED_EDGE('',*,*,#422,.T.);
#424=EDGE_LOOP('',(#421,#423));
#425=FACE_BOUND('',#424,.F.);
#427=CARTESIAN_POINT('',(-1.25E0,-4.002693342108E0,-1.6E0));
#428=DIRECTION('',(1.E0,0.E0,0.E0));
#429=DIRECTION('',(0.E0,1.E0,0.E0));
#430=AXIS2_PLACEMENT_3D('',#427,#428,#429);
#431=PLANE('',#430);
#432=ORIENTED_EDGE('',*,*,#288,.F.);
#434=ORIENTED_EDGE('',*,*,#433,.T.);
#436=ORIENTED_EDGE('',*,*,#435,.T.);
#437=ORIENTED_EDGE('',*,*,#413,.F.);
#438=EDGE_LOOP('',(#432,#434,#436,#437));
#439=FACE_OUTER_BOUND('',#438,.F.);
#441=CARTESIAN_POINT('',(-4.5E0,-4.002693342108E0,-1.6E0));
#442=DIRECTION('',(0.E0,-1.E0,0.E0));
#443=DIRECTION('',(1.E0,0.E0,0.E0));
#444=AXIS2_PLACEMENT_3D('',#441,#442,#443);
#445=PLANE('',#444);
#446=ORIENTED_EDGE('',*,*,#286,.F.);
#448=ORIENTED_EDGE('',*,*,#447,.T.);
#450=ORIENTED_EDGE('',*,*,#449,.T.);
#451=ORIENTED_EDGE('',*,*,#433,.F.);
#452=EDGE_LOOP('',(#446,#448,#450,#451));
#453=FACE_OUTER_BOUND('',#452,.F.);
#455=ORIENTED_EDGE('',*,*,#454,.T.);
#457=ORIENTED_EDGE('',*,*,#456,.T.);
#458=EDGE_LOOP('',(#455,#457));
#459=FACE_BOUND('',#458,.F.);
#461=CARTESIAN_POINT('',(-4.5E0,3.997306657892E0,-1.6E0));
#462=DIRECTION('',(-1.E0,0.E0,0.E0));
#463=DIRECTION('',(0.E0,-1.E0,0.E0));
#464=AXIS2_PLACEMENT_3D('',#461,#462,#463);
#465=PLANE('',#464);
#466=ORIENTED_EDGE('',*,*,#284,.F.);
#468=ORIENTED_EDGE('',*,*,#467,.F.);
#470=ORIENTED_EDGE('',*,*,#469,.T.);
#471=ORIENTED_EDGE('',*,*,#447,.F.);
#472=EDGE_LOOP('',(#466,#468,#470,#471));
#473=FACE_OUTER_BOUND('',#472,.F.);
#475=CARTESIAN_POINT('',(-4.2E0,3.697306657892E0,0.E0));
#476=DIRECTION('',(-7.071067811865E-1,7.071067811865E-1,0.E0));
#477=DIRECTION('',(7.071067811865E-1,7.071067811865E-1,0.E0));
#478=AXIS2_PLACEMENT_3D('',#475,#476,#477);
#479=PLANE('',#478);
#480=ORIENTED_EDGE('',*,*,#467,.T.);
#481=ORIENTED_EDGE('',*,*,#308,.F.);
#482=ORIENTED_EDGE('',*,*,#323,.F.);
#483=ORIENTED_EDGE('',*,*,#341,.T.);
#484=EDGE_LOOP('',(#480,#481,#482,#483));
#485=FACE_OUTER_BOUND('',#484,.F.);
#487=CARTESIAN_POINT('',(0.E0,0.E0,1.6E0));
#488=DIRECTION('',(0.E0,0.E0,1.E0));
#489=DIRECTION('',(1.E0,0.E0,0.E0));
#490=AXIS2_PLACEMENT_3D('',#487,#488,#489);
#491=PLANE('',#490);
#492=ORIENTED_EDGE('',*,*,#339,.F.);
#493=ORIENTED_EDGE('',*,*,#367,.F.);
#494=ORIENTED_EDGE('',*,*,#381,.F.);
#495=ORIENTED_EDGE('',*,*,#401,.F.);
#496=ORIENTED_EDGE('',*,*,#415,.F.);
#497=ORIENTED_EDGE('',*,*,#435,.F.);
#498=ORIENTED_EDGE('',*,*,#449,.F.);
#499=ORIENTED_EDGE('',*,*,#469,.F.);
#500=EDGE_LOOP('',(#492,#493,#494,#495,#496,#497,#498,#499));
#501=FACE_OUTER_BOUND('',#500,.F.);
#503=CARTESIAN_POINT('',(-2.5E0,-3.002693342108E0,0.E0));
#504=DIRECTION('',(0.E0,-1.E0,0.E0));
#505=DIRECTION('',(-1.E0,0.E0,0.E0));
#506=AXIS2_PLACEMENT_3D('',#503,#504,#505);
#507=CYLINDRICAL_SURFACE('',#506,2.5E-1);
#508=ORIENTED_EDGE('',*,*,#454,.F.);
#510=ORIENTED_EDGE('',*,*,#509,.T.);
#512=ORIENTED_EDGE('',*,*,#511,.T.);
#514=ORIENTED_EDGE('',*,*,#513,.F.);
#515=EDGE_LOOP('',(#508,#510,#512,#514));
#516=FACE_OUTER_BOUND('',#515,.F.);
#518=CARTESIAN_POINT('',(-2.5E0,-3.002693342108E0,0.E0));
#519=DIRECTION('',(0.E0,-1.E0,0.E0));
#520=DIRECTION('',(-1.E0,0.E0,0.E0));
#521=AXIS2_PLACEMENT_3D('',#518,#519,#520);
#522=CYLINDRICAL_SURFACE('',#521,2.5E-1);
#523=ORIENTED_EDGE('',*,*,#456,.F.);
#524=ORIENTED_EDGE('',*,*,#513,.T.);
#526=ORIENTED_EDGE('',*,*,#525,.T.);
#527=ORIENTED_EDGE('',*,*,#509,.F.);
#528=EDGE_LOOP('',(#523,#524,#526,#527));
#529=FACE_OUTER_BOUND('',#528,.F.);
#531=CARTESIAN_POINT('',(0.E0,-2.800269334211E1,1.6E0));
#532=DIRECTION('',(0.E0,-1.E0,0.E0));
#533=DIRECTION('',(-1.E0,0.E0,0.E0));
#534=AXIS2_PLACEMENT_3D('',#531,#532,#533);
#535=PLANE('',#534);
#537=ORIENTED_EDGE('',*,*,#536,.F.);
#539=ORIENTED_EDGE('',*,*,#538,.F.);
#540=EDGE_LOOP('',(#537,#539));
#541=FACE_OUTER_BOUND('',#540,.F.);
#543=CARTESIAN_POINT('',(0.E0,-2.800269334211E1,1.6E0));
#544=DIRECTION('',(0.E0,-1.E0,0.E0));
#545=DIRECTION('',(-1.E0,0.E0,0.E0));
#546=AXIS2_PLACEMENT_3D('',#543,#544,#545);
#547=PLANE('',#546);
#548=ORIENTED_EDGE('',*,*,#511,.F.);
#549=ORIENTED_EDGE('',*,*,#525,.F.);
#550=EDGE_LOOP('',(#548,#549));
#551=FACE_OUTER_BOUND('',#550,.F.);
#553=CARTESIAN_POINT('',(0.E0,-2.800269334211E1,1.6E0));
#554=DIRECTION('',(0.E0,-1.E0,0.E0));
#555=DIRECTION('',(-1.E0,0.E0,0.E0));
#556=AXIS2_PLACEMENT_3D('',#553,#554,#555);
#557=PLANE('',#556);
#559=ORIENTED_EDGE('',*,*,#558,.F.);
#561=ORIENTED_EDGE('',*,*,#560,.F.);
#562=EDGE_LOOP('',(#559,#561));
#563=FACE_OUTER_BOUND('',#562,.F.);
#565=CARTESIAN_POINT('',(0.E0,-3.002693342108E0,0.E0));
#566=DIRECTION('',(0.E0,-1.E0,0.E0));
#567=DIRECTION('',(-1.E0,0.E0,0.E0));
#568=AXIS2_PLACEMENT_3D('',#565,#566,#567);
#569=CYLINDRICAL_SURFACE('',#568,2.5E-1);
#570=ORIENTED_EDGE('',*,*,#420,.F.);
#572=ORIENTED_EDGE('',*,*,#571,.T.);
#573=ORIENTED_EDGE('',*,*,#536,.T.);
#575=ORIENTED_EDGE('',*,*,#574,.F.);
#576=EDGE_LOOP('',(#570,#572,#573,#575));
#577=FACE_OUTER_BOUND('',#576,.F.);
#579=CARTESIAN_POINT('',(0.E0,-3.002693342108E0,0.E0));
#580=DIRECTION('',(0.E0,-1.E0,0.E0));
#581=DIRECTION('',(-1.E0,0.E0,0.E0));
#582=AXIS2_PLACEMENT_3D('',#579,#580,#581);
#583=CYLINDRICAL_SURFACE('',#582,2.5E-1);
#584=ORIENTED_EDGE('',*,*,#422,.F.);
#585=ORIENTED_EDGE('',*,*,#574,.T.);
#586=ORIENTED_EDGE('',*,*,#538,.T.);
#587=ORIENTED_EDGE('',*,*,#571,.F.);
#588=EDGE_LOOP('',(#584,#585,#586,#587));
#589=FACE_OUTER_BOUND('',#588,.F.);
#591=CARTESIAN_POINT('',(2.5E0,-3.002693342108E0,0.E0));
#592=DIRECTION('',(0.E0,-1.E0,0.E0));
#593=DIRECTION('',(-1.E0,0.E0,0.E0));
#594=AXIS2_PLACEMENT_3D('',#591,#592,#593);
#595=CYLINDRICAL_SURFACE('',#594,2.5E-1);
#596=ORIENTED_EDGE('',*,*,#386,.F.);
#598=ORIENTED_EDGE('',*,*,#597,.T.);
#599=ORIENTED_EDGE('',*,*,#558,.T.);
#601=ORIENTED_EDGE('',*,*,#600,.F.);
#602=EDGE_LOOP('',(#596,#598,#599,#601));
#603=FACE_OUTER_BOUND('',#602,.F.);
#605=CARTESIAN_POINT('',(2.5E0,-3.002693342108E0,0.E0));
#606=DIRECTION('',(0.E0,-1.E0,0.E0));
#607=DIRECTION('',(-1.E0,0.E0,0.E0));
#608=AXIS2_PLACEMENT_3D('',#605,#606,#607);
#609=CYLINDRICAL_SURFACE('',#608,2.5E-1);
#610=ORIENTED_EDGE('',*,*,#388,.F.);
#611=ORIENTED_EDGE('',*,*,#600,.T.);
#612=ORIENTED_EDGE('',*,*,#560,.T.);
#613=ORIENTED_EDGE('',*,*,#597,.F.);
#614=EDGE_LOOP('',(#610,#611,#612,#613));
#615=FACE_OUTER_BOUND('',#614,.F.);
#617=CLOSED_SHELL('',(#300,#315,#330,#345,#358,#372,#392,#406,#426,#440,#460,
#474,#486,#502,#517,#530,#542,#552,#564,#578,#590,#604,#616));
#618=MANIFOLD_SOLID_BREP('',#617);
#620=DIMENSIONAL_EXPONENTS(0.E0,0.E0,0.E0,0.E0,0.E0,0.E0,0.E0);
#622=PLANE_ANGLE_MEASURE_WITH_UNIT(PLANE_ANGLE_MEASURE(1.745329251994E-2),#621);
#623=(CONVERSION_BASED_UNIT('DEGREE',#622)NAMED_UNIT(*)PLANE_ANGLE_UNIT());
#625=UNCERTAINTY_MEASURE_WITH_UNIT(LENGTH_MEASURE(1.391411392870E-3),#619,
'closure',
'Maximum model space distance between geometric entities at asserted connectivities');
#628=APPLICATION_CONTEXT(
'CONFIGURATION CONTROLLED 3D DESIGNS OF MECHANICAL PARTS AND ASSEMBLIES');
#629=APPLICATION_PROTOCOL_DEFINITION('international standard',
'config_control_design',1994,#628);
#630=DESIGN_CONTEXT('',#628,'design');
#631=MECHANICAL_CONTEXT('',#628,'mechanical');
#632=PRODUCT('EMI-T','EMI-T','NOT SPECIFIED',(#631));
#633=PRODUCT_DEFINITION_FORMATION_WITH_SPECIFIED_SOURCE('2','LAST_VERSION',#632,
.MADE.);
#637=PRODUCT_CATEGORY('part','');
#638=PRODUCT_RELATED_PRODUCT_CATEGORY('detail','',(#632));
#639=PRODUCT_CATEGORY_RELATIONSHIP('','',#637,#638);
#640=SECURITY_CLASSIFICATION_LEVEL('unclassified');
#641=SECURITY_CLASSIFICATION('','',#640);
#642=CC_DESIGN_SECURITY_CLASSIFICATION(#641,(#633));
#643=APPROVAL_STATUS('approved');
#644=APPROVAL(#643,'');
#645=CC_DESIGN_APPROVAL(#644,(#641,#633,#634));
#646=CALENDAR_DATE(112,21,8);
#647=COORDINATED_UNIVERSAL_TIME_OFFSET(7,0,.BEHIND.);
#648=LOCAL_TIME(10,58,5.8E1,#647);
#649=DATE_AND_TIME(#646,#648);
#650=APPROVAL_DATE_TIME(#649,#644);
#651=DATE_TIME_ROLE('creation_date');
#652=CC_DESIGN_DATE_AND_TIME_ASSIGNMENT(#649,#651,(#634));
#653=DATE_TIME_ROLE('classification_date');
#654=CC_DESIGN_DATE_AND_TIME_ASSIGNMENT(#649,#653,(#641));
#655=PERSON('UNSPECIFIED','UNSPECIFIED',$,$,$,$);
#656=ORGANIZATION('UNSPECIFIED','UNSPECIFIED','UNSPECIFIED');
#657=PERSON_AND_ORGANIZATION(#655,#656);
#658=APPROVAL_ROLE('approver');
#659=APPROVAL_PERSON_ORGANIZATION(#657,#644,#658);
#660=PERSON_AND_ORGANIZATION_ROLE('creator');
#661=CC_DESIGN_PERSON_AND_ORGANIZATION_ASSIGNMENT(#657,#660,(#633,#634));
#662=PERSON_AND_ORGANIZATION_ROLE('design_supplier');
#663=CC_DESIGN_PERSON_AND_ORGANIZATION_ASSIGNMENT(#657,#662,(#633));
#664=PERSON_AND_ORGANIZATION_ROLE('classification_officer');
#665=CC_DESIGN_PERSON_AND_ORGANIZATION_ASSIGNMENT(#657,#664,(#641));
#666=PERSON_AND_ORGANIZATION_ROLE('design_owner');
#667=CC_DESIGN_PERSON_AND_ORGANIZATION_ASSIGNMENT(#657,#666,(#632));
#77=CIRCLE('',#76,2.5E-1);
#82=CIRCLE('',#81,2.5E-1);
#95=CIRCLE('',#94,2.5E-1);
#100=CIRCLE('',#99,2.5E-1);
#113=CIRCLE('',#112,2.5E-1);
#118=CIRCLE('',#117,2.5E-1);
#171=CIRCLE('',#170,2.5E-1);
#176=CIRCLE('',#175,2.5E-1);
#181=CIRCLE('',#180,2.5E-1);
#186=CIRCLE('',#185,2.5E-1);
#191=CIRCLE('',#190,2.5E-1);
#196=CIRCLE('',#195,2.5E-1);
#282=EDGE_CURVE('',#227,#228,#4,.T.);
#284=EDGE_CURVE('',#227,#230,#8,.T.);
#286=EDGE_CURVE('',#230,#238,#12,.T.);
#288=EDGE_CURVE('',#238,#240,#16,.T.);
#290=EDGE_CURVE('',#240,#242,#20,.T.);
#292=EDGE_CURVE('',#242,#244,#24,.T.);
#294=EDGE_CURVE('',#244,#232,#28,.T.);
#296=EDGE_CURVE('',#232,#228,#32,.T.);
#300=ADVANCED_FACE('',(#299),#281,.F.);
#306=EDGE_CURVE('',#223,#224,#48,.T.);
#308=EDGE_CURVE('',#223,#227,#126,.T.);
#311=EDGE_CURVE('',#224,#228,#36,.T.);
#315=ADVANCED_FACE('',(#314),#305,.T.);
#321=EDGE_CURVE('',#215,#216,#40,.T.);
#323=EDGE_CURVE('',#216,#223,#44,.T.);
#326=EDGE_CURVE('',#215,#224,#52,.T.);
#330=ADVANCED_FACE('',(#329),#320,.T.);
#337=EDGE_CURVE('',#215,#219,#60,.T.);
#339=EDGE_CURVE('',#219,#220,#130,.T.);
#341=EDGE_CURVE('',#216,#220,#56,.T.);
#345=ADVANCED_FACE('',(#344),#335,.T.);
#351=EDGE_CURVE('',#219,#228,#68,.T.);
#358=ADVANCED_FACE('',(#357),#350,.T.);
#365=EDGE_CURVE('',#232,#236,#64,.T.);
#367=EDGE_CURVE('',#236,#219,#134,.T.);
#372=ADVANCED_FACE('',(#371),#363,.T.);
#379=EDGE_CURVE('',#244,#252,#72,.T.);
#381=EDGE_CURVE('',#252,#236,#138,.T.);
#386=EDGE_CURVE('',#275,#276,#77,.T.);
#388=EDGE_CURVE('',#276,#275,#82,.T.);
#392=ADVANCED_FACE('',(#385,#391),#377,.T.);
#399=EDGE_CURVE('',#242,#250,#86,.T.);
#401=EDGE_CURVE('',#250,#252,#142,.T.);
#406=ADVANCED_FACE('',(#405),#397,.T.);
#413=EDGE_CURVE('',#240,#248,#90,.T.);
#415=EDGE_CURVE('',#248,#250,#146,.T.);
#420=EDGE_CURVE('',#271,#272,#95,.T.);
#422=EDGE_CURVE('',#272,#271,#100,.T.);
#426=ADVANCED_FACE('',(#419,#425),#411,.T.);
#433=EDGE_CURVE('',#238,#246,#104,.T.);
#435=EDGE_CURVE('',#246,#248,#150,.T.);
#440=ADVANCED_FACE('',(#439),#431,.T.);
#447=EDGE_CURVE('',#230,#234,#108,.T.);
#449=EDGE_CURVE('',#234,#246,#154,.T.);
#454=EDGE_CURVE('',#267,#268,#113,.T.);
#456=EDGE_CURVE('',#268,#267,#118,.T.);
#460=ADVANCED_FACE('',(#453,#459),#445,.T.);
#467=EDGE_CURVE('',#220,#227,#122,.T.);
#469=EDGE_CURVE('',#220,#234,#158,.T.);
#474=ADVANCED_FACE('',(#473),#465,.T.);
#486=ADVANCED_FACE('',(#485),#479,.T.);
#502=ADVANCED_FACE('',(#501),#491,.T.);
#509=EDGE_CURVE('',#267,#259,#162,.T.);
#511=EDGE_CURVE('',#259,#260,#181,.T.);
#513=EDGE_CURVE('',#268,#260,#166,.T.);
#517=ADVANCED_FACE('',(#516),#507,.T.);
#525=EDGE_CURVE('',#260,#259,#186,.T.);
#530=ADVANCED_FACE('',(#529),#522,.T.);
#536=EDGE_CURVE('',#255,#256,#171,.T.);
#538=EDGE_CURVE('',#256,#255,#176,.T.);
#542=ADVANCED_FACE('',(#541),#535,.T.);
#552=ADVANCED_FACE('',(#551),#547,.T.);
#558=EDGE_CURVE('',#263,#264,#191,.T.);
#560=EDGE_CURVE('',#264,#263,#196,.T.);
#564=ADVANCED_FACE('',(#563),#557,.T.);
#571=EDGE_CURVE('',#271,#255,#200,.T.);
#574=EDGE_CURVE('',#272,#256,#204,.T.);
#578=ADVANCED_FACE('',(#577),#569,.T.);
#590=ADVANCED_FACE('',(#589),#583,.T.);
#597=EDGE_CURVE('',#275,#263,#208,.T.);
#600=EDGE_CURVE('',#276,#264,#212,.T.);
#604=ADVANCED_FACE('',(#603),#595,.T.);
#616=ADVANCED_FACE('',(#615),#609,.T.);
#619=(LENGTH_UNIT()NAMED_UNIT(*)SI_UNIT(.MILLI.,.METRE.));
#621=(NAMED_UNIT(*)PLANE_ANGLE_UNIT()SI_UNIT($,.RADIAN.));
#624=(NAMED_UNIT(*)SI_UNIT($,.STERADIAN.)SOLID_ANGLE_UNIT());
#626=(GEOMETRIC_REPRESENTATION_CONTEXT(3)GLOBAL_UNCERTAINTY_ASSIGNED_CONTEXT((
#625))GLOBAL_UNIT_ASSIGNED_CONTEXT((#619,#623,#624))REPRESENTATION_CONTEXT
('ID1','3'));
#627=ADVANCED_BREP_SHAPE_REPRESENTATION('',(#618),#626);
#634=PRODUCT_DEFINITION('design','',#633,#630);
#635=PRODUCT_DEFINITION_SHAPE('','SHAPE FOR EMI-T.',#634);
#636=SHAPE_DEFINITION_REPRESENTATION(#635,#627);
ENDSEC;
END-ISO-10303-21;
