ISO-10303-21;
HEADER;
FILE_DESCRIPTION((''),'2;1');
FILE_NAME('FB73-085-RC','2012-08-09T',('ryans'),('Bourns, Inc.'),
'PRO/ENGINEER BY PARAMETRIC TECHNOLOGY CORPORATION, 2010100',
'PRO/ENGINEER BY PARAMETRIC TECHNOLOGY CORPORATION, 2010100','');
FILE_SCHEMA(('CONFIG_CONTROL_DESIGN'));
ENDSEC;
DATA;
#1=CARTESIAN_POINT('',(0.E0,0.E0,0.E0));
#2=DIRECTION('',(0.E0,1.E0,0.E0));
#3=DIRECTION('',(1.E0,0.E0,0.E0));
#4=AXIS2_PLACEMENT_3D('',#1,#2,#3);
#6=CARTESIAN_POINT('',(0.E0,0.E0,0.E0));
#7=DIRECTION('',(0.E0,1.E0,0.E0));
#8=DIRECTION('',(-1.E0,0.E0,0.E0));
#9=AXIS2_PLACEMENT_3D('',#6,#7,#8);
#11=CARTESIAN_POINT('',(0.E0,0.E0,0.E0));
#12=DIRECTION('',(0.E0,-1.E0,0.E0));
#13=DIRECTION('',(1.E0,0.E0,0.E0));
#14=AXIS2_PLACEMENT_3D('',#11,#12,#13);
#16=CARTESIAN_POINT('',(0.E0,0.E0,0.E0));
#17=DIRECTION('',(0.E0,-1.E0,0.E0));
#18=DIRECTION('',(-1.E0,0.E0,0.E0));
#19=AXIS2_PLACEMENT_3D('',#16,#17,#18);
#21=DIRECTION('',(0.E0,1.E0,0.E0));
#22=VECTOR('',#21,1.28E-1);
#23=CARTESIAN_POINT('',(7.E-2,0.E0,0.E0));
#24=LINE('',#23,#22);
#25=DIRECTION('',(0.E0,1.E0,0.E0));
#26=VECTOR('',#25,1.28E-1);
#27=CARTESIAN_POINT('',(-7.E-2,0.E0,0.E0));
#28=LINE('',#27,#26);
#29=CARTESIAN_POINT('',(0.E0,1.28E-1,0.E0));
#30=DIRECTION('',(0.E0,1.E0,0.E0));
#31=DIRECTION('',(1.E0,0.E0,0.E0));
#32=AXIS2_PLACEMENT_3D('',#29,#30,#31);
#34=CARTESIAN_POINT('',(0.E0,1.28E-1,0.E0));
#35=DIRECTION('',(0.E0,1.E0,0.E0));
#36=DIRECTION('',(-1.E0,0.E0,0.E0));
#37=AXIS2_PLACEMENT_3D('',#34,#35,#36);
#39=CARTESIAN_POINT('',(0.E0,1.28E-1,0.E0));
#40=DIRECTION('',(0.E0,-1.E0,0.E0));
#41=DIRECTION('',(1.E0,0.E0,0.E0));
#42=AXIS2_PLACEMENT_3D('',#39,#40,#41);
#44=CARTESIAN_POINT('',(0.E0,1.28E-1,0.E0));
#45=DIRECTION('',(0.E0,-1.E0,0.E0));
#46=DIRECTION('',(-1.E0,0.E0,0.E0));
#47=AXIS2_PLACEMENT_3D('',#44,#45,#46);
#49=DIRECTION('',(0.E0,1.E0,0.E0));
#50=VECTOR('',#49,1.28E-1);
#51=CARTESIAN_POINT('',(2.5E-2,0.E0,0.E0));
#52=LINE('',#51,#50);
#53=DIRECTION('',(0.E0,1.E0,0.E0));
#54=VECTOR('',#53,1.28E-1);
#55=CARTESIAN_POINT('',(-2.5E-2,0.E0,0.E0));
#56=LINE('',#55,#54);
#57=CARTESIAN_POINT('',(7.E-2,0.E0,0.E0));
#58=CARTESIAN_POINT('',(-7.E-2,0.E0,0.E0));
#59=VERTEX_POINT('',#57);
#60=VERTEX_POINT('',#58);
#61=CARTESIAN_POINT('',(2.5E-2,0.E0,0.E0));
#62=CARTESIAN_POINT('',(-2.5E-2,0.E0,0.E0));
#63=VERTEX_POINT('',#61);
#64=VERTEX_POINT('',#62);
#65=CARTESIAN_POINT('',(7.E-2,1.28E-1,0.E0));
#66=CARTESIAN_POINT('',(-7.E-2,1.28E-1,0.E0));
#67=VERTEX_POINT('',#65);
#68=VERTEX_POINT('',#66);
#69=CARTESIAN_POINT('',(2.5E-2,1.28E-1,0.E0));
#70=CARTESIAN_POINT('',(-2.5E-2,1.28E-1,0.E0));
#71=VERTEX_POINT('',#69);
#72=VERTEX_POINT('',#70);
#73=CARTESIAN_POINT('',(0.E0,0.E0,0.E0));
#74=DIRECTION('',(0.E0,1.E0,0.E0));
#75=DIRECTION('',(1.E0,0.E0,0.E0));
#76=AXIS2_PLACEMENT_3D('',#73,#74,#75);
#77=PLANE('',#76);
#79=ORIENTED_EDGE('',*,*,#78,.T.);
#81=ORIENTED_EDGE('',*,*,#80,.T.);
#82=EDGE_LOOP('',(#79,#81));
#83=FACE_OUTER_BOUND('',#82,.F.);
#85=ORIENTED_EDGE('',*,*,#84,.T.);
#87=ORIENTED_EDGE('',*,*,#86,.T.);
#88=EDGE_LOOP('',(#85,#87));
#89=FACE_BOUND('',#88,.F.);
#91=CARTESIAN_POINT('',(0.E0,0.E0,0.E0));
#92=DIRECTION('',(0.E0,1.E0,0.E0));
#93=DIRECTION('',(1.E0,0.E0,0.E0));
#94=AXIS2_PLACEMENT_3D('',#91,#92,#93);
#95=CYLINDRICAL_SURFACE('',#94,7.E-2);
#96=ORIENTED_EDGE('',*,*,#78,.F.);
#98=ORIENTED_EDGE('',*,*,#97,.T.);
#100=ORIENTED_EDGE('',*,*,#99,.T.);
#102=ORIENTED_EDGE('',*,*,#101,.F.);
#103=EDGE_LOOP('',(#96,#98,#100,#102));
#104=FACE_OUTER_BOUND('',#103,.F.);
#106=CARTESIAN_POINT('',(0.E0,0.E0,0.E0));
#107=DIRECTION('',(0.E0,1.E0,0.E0));
#108=DIRECTION('',(1.E0,0.E0,0.E0));
#109=AXIS2_PLACEMENT_3D('',#106,#107,#108);
#110=CYLINDRICAL_SURFACE('',#109,7.E-2);
#111=ORIENTED_EDGE('',*,*,#80,.F.);
#112=ORIENTED_EDGE('',*,*,#101,.T.);
#114=ORIENTED_EDGE('',*,*,#113,.T.);
#115=ORIENTED_EDGE('',*,*,#97,.F.);
#116=EDGE_LOOP('',(#111,#112,#114,#115));
#117=FACE_OUTER_BOUND('',#116,.F.);
#119=CARTESIAN_POINT('',(0.E0,1.28E-1,0.E0));
#120=DIRECTION('',(0.E0,1.E0,0.E0));
#121=DIRECTION('',(1.E0,0.E0,0.E0));
#122=AXIS2_PLACEMENT_3D('',#119,#120,#121);
#123=PLANE('',#122);
#124=ORIENTED_EDGE('',*,*,#99,.F.);
#125=ORIENTED_EDGE('',*,*,#113,.F.);
#126=EDGE_LOOP('',(#124,#125));
#127=FACE_OUTER_BOUND('',#126,.F.);
#129=ORIENTED_EDGE('',*,*,#128,.F.);
#131=ORIENTED_EDGE('',*,*,#130,.F.);
#132=EDGE_LOOP('',(#129,#131));
#133=FACE_BOUND('',#132,.F.);
#135=CARTESIAN_POINT('',(0.E0,0.E0,0.E0));
#136=DIRECTION('',(0.E0,1.E0,0.E0));
#137=DIRECTION('',(1.E0,0.E0,0.E0));
#138=AXIS2_PLACEMENT_3D('',#135,#136,#137);
#139=CYLINDRICAL_SURFACE('',#138,2.5E-2);
#140=ORIENTED_EDGE('',*,*,#84,.F.);
#142=ORIENTED_EDGE('',*,*,#141,.T.);
#143=ORIENTED_EDGE('',*,*,#128,.T.);
#145=ORIENTED_EDGE('',*,*,#144,.F.);
#146=EDGE_LOOP('',(#140,#142,#143,#145));
#147=FACE_OUTER_BOUND('',#146,.F.);
#149=CARTESIAN_POINT('',(0.E0,0.E0,0.E0));
#150=DIRECTION('',(0.E0,1.E0,0.E0));
#151=DIRECTION('',(1.E0,0.E0,0.E0));
#152=AXIS2_PLACEMENT_3D('',#149,#150,#151);
#153=CYLINDRICAL_SURFACE('',#152,2.5E-2);
#154=ORIENTED_EDGE('',*,*,#86,.F.);
#155=ORIENTED_EDGE('',*,*,#144,.T.);
#156=ORIENTED_EDGE('',*,*,#130,.T.);
#157=ORIENTED_EDGE('',*,*,#141,.F.);
#158=EDGE_LOOP('',(#154,#155,#156,#157));
#159=FACE_OUTER_BOUND('',#158,.F.);
#161=CLOSED_SHELL('',(#90,#105,#118,#134,#148,#160));
#162=MANIFOLD_SOLID_BREP('',#161);
#163=DIMENSIONAL_EXPONENTS(1.E0,0.E0,0.E0,0.E0,0.E0,0.E0,0.E0);
#165=LENGTH_MEASURE_WITH_UNIT(LENGTH_MEASURE(2.54E1),#164);
#166=(CONVERSION_BASED_UNIT('INCH',#165)LENGTH_UNIT()NAMED_UNIT(#163));
#167=DIMENSIONAL_EXPONENTS(0.E0,0.E0,0.E0,0.E0,0.E0,0.E0,0.E0);
#169=PLANE_ANGLE_MEASURE_WITH_UNIT(PLANE_ANGLE_MEASURE(1.745329251994E-2),#168);
#170=(CONVERSION_BASED_UNIT('DEGREE',#169)NAMED_UNIT(*)PLANE_ANGLE_UNIT());
#172=UNCERTAINTY_MEASURE_WITH_UNIT(LENGTH_MEASURE(9.824216872476E-6),#166,
'closure',
'Maximum model space distance between geometric entities at asserted connectivities');
#175=APPLICATION_CONTEXT(
'CONFIGURATION CONTROLLED 3D DESIGNS OF MECHANICAL PARTS AND ASSEMBLIES');
#176=APPLICATION_PROTOCOL_DEFINITION('international standard',
'config_control_design',1994,#175);
#177=DESIGN_CONTEXT('',#175,'design');
#178=MECHANICAL_CONTEXT('',#175,'mechanical');
#179=PRODUCT('FB73-085-RC','FB73-085-RC','NOT SPECIFIED',(#178));
#180=PRODUCT_DEFINITION_FORMATION_WITH_SPECIFIED_SOURCE('3','LAST_VERSION',#179,
.MADE.);
#184=PRODUCT_CATEGORY('part','');
#185=PRODUCT_RELATED_PRODUCT_CATEGORY('detail','',(#179));
#186=PRODUCT_CATEGORY_RELATIONSHIP('','',#184,#185);
#187=SECURITY_CLASSIFICATION_LEVEL('unclassified');
#188=SECURITY_CLASSIFICATION('','',#187);
#189=CC_DESIGN_SECURITY_CLASSIFICATION(#188,(#180));
#190=APPROVAL_STATUS('approved');
#191=APPROVAL(#190,'');
#192=CC_DESIGN_APPROVAL(#191,(#188,#180,#181));
#193=CALENDAR_DATE(112,9,8);
#194=COORDINATED_UNIVERSAL_TIME_OFFSET(7,0,.BEHIND.);
#195=LOCAL_TIME(13,4,2.5E1,#194);
#196=DATE_AND_TIME(#193,#195);
#197=APPROVAL_DATE_TIME(#196,#191);
#198=DATE_TIME_ROLE('creation_date');
#199=CC_DESIGN_DATE_AND_TIME_ASSIGNMENT(#196,#198,(#181));
#200=DATE_TIME_ROLE('classification_date');
#201=CC_DESIGN_DATE_AND_TIME_ASSIGNMENT(#196,#200,(#188));
#202=PERSON('UNSPECIFIED','UNSPECIFIED',$,$,$,$);
#203=ORGANIZATION('UNSPECIFIED','UNSPECIFIED','UNSPECIFIED');
#204=PERSON_AND_ORGANIZATION(#202,#203);
#205=APPROVAL_ROLE('approver');
#206=APPROVAL_PERSON_ORGANIZATION(#204,#191,#205);
#207=PERSON_AND_ORGANIZATION_ROLE('creator');
#208=CC_DESIGN_PERSON_AND_ORGANIZATION_ASSIGNMENT(#204,#207,(#180,#181));
#209=PERSON_AND_ORGANIZATION_ROLE('design_supplier');
#210=CC_DESIGN_PERSON_AND_ORGANIZATION_ASSIGNMENT(#204,#209,(#180));
#211=PERSON_AND_ORGANIZATION_ROLE('classification_officer');
#212=CC_DESIGN_PERSON_AND_ORGANIZATION_ASSIGNMENT(#204,#211,(#188));
#213=PERSON_AND_ORGANIZATION_ROLE('design_owner');
#214=CC_DESIGN_PERSON_AND_ORGANIZATION_ASSIGNMENT(#204,#213,(#179));
#5=CIRCLE('',#4,7.E-2);
#10=CIRCLE('',#9,7.E-2);
#15=CIRCLE('',#14,2.5E-2);
#20=CIRCLE('',#19,2.5E-2);
#33=CIRCLE('',#32,7.E-2);
#38=CIRCLE('',#37,7.E-2);
#43=CIRCLE('',#42,2.5E-2);
#48=CIRCLE('',#47,2.5E-2);
#78=EDGE_CURVE('',#59,#60,#5,.T.);
#80=EDGE_CURVE('',#60,#59,#10,.T.);
#84=EDGE_CURVE('',#63,#64,#15,.T.);
#86=EDGE_CURVE('',#64,#63,#20,.T.);
#90=ADVANCED_FACE('',(#83,#89),#77,.F.);
#97=EDGE_CURVE('',#59,#67,#24,.T.);
#99=EDGE_CURVE('',#67,#68,#33,.T.);
#101=EDGE_CURVE('',#60,#68,#28,.T.);
#105=ADVANCED_FACE('',(#104),#95,.T.);
#113=EDGE_CURVE('',#68,#67,#38,.T.);
#118=ADVANCED_FACE('',(#117),#110,.T.);
#128=EDGE_CURVE('',#71,#72,#43,.T.);
#130=EDGE_CURVE('',#72,#71,#48,.T.);
#134=ADVANCED_FACE('',(#127,#133),#123,.T.);
#141=EDGE_CURVE('',#63,#71,#52,.T.);
#144=EDGE_CURVE('',#64,#72,#56,.T.);
#148=ADVANCED_FACE('',(#147),#139,.F.);
#160=ADVANCED_FACE('',(#159),#153,.F.);
#164=(LENGTH_UNIT()NAMED_UNIT(*)SI_UNIT(.MILLI.,.METRE.));
#168=(NAMED_UNIT(*)PLANE_ANGLE_UNIT()SI_UNIT($,.RADIAN.));
#171=(NAMED_UNIT(*)SI_UNIT($,.STERADIAN.)SOLID_ANGLE_UNIT());
#173=(GEOMETRIC_REPRESENTATION_CONTEXT(3)GLOBAL_UNCERTAINTY_ASSIGNED_CONTEXT((
#172))GLOBAL_UNIT_ASSIGNED_CONTEXT((#166,#170,#171))REPRESENTATION_CONTEXT
('ID1','3'));
#174=ADVANCED_BREP_SHAPE_REPRESENTATION('',(#162),#173);
#181=PRODUCT_DEFINITION('design','',#180,#177);
#182=PRODUCT_DEFINITION_SHAPE('','SHAPE FOR FB73-085-RC.',#181);
#183=SHAPE_DEFINITION_REPRESENTATION(#182,#174);
ENDSEC;
END-ISO-10303-21;
