ISO-10303-21;
HEADER;
FILE_DESCRIPTION((''),'2;1');
FILE_NAME('LPA0618-100KL','2012-07-16T',('ryans'),('Bourns, Inc.'),
'PRO/ENGINEER BY PARAMETRIC TECHNOLOGY CORPORATION, 2010100',
'PRO/ENGINEER BY PARAMETRIC TECHNOLOGY CORPORATION, 2010100','');
FILE_SCHEMA(('CONFIG_CONTROL_DESIGN'));
ENDSEC;
DATA;
#1=CARTESIAN_POINT('',(0.E0,0.E0,1.224646799147E-14));
#2=DIRECTION('',(0.E0,1.E0,0.E0));
#3=DIRECTION('',(1.E0,0.E0,0.E0));
#4=AXIS2_PLACEMENT_3D('',#1,#2,#3);
#6=CARTESIAN_POINT('',(0.E0,0.E0,1.224646799147E-14));
#7=DIRECTION('',(0.E0,1.E0,0.E0));
#8=DIRECTION('',(-1.E0,0.E0,0.E0));
#9=AXIS2_PLACEMENT_3D('',#6,#7,#8);
#11=CARTESIAN_POINT('',(0.E0,0.E0,0.E0));
#12=DIRECTION('',(0.E0,-1.E0,0.E0));
#13=DIRECTION('',(1.E0,0.E0,0.E0));
#14=AXIS2_PLACEMENT_3D('',#11,#12,#13);
#16=CARTESIAN_POINT('',(0.E0,0.E0,1.224646799147E-14));
#17=DIRECTION('',(0.E0,-1.E0,0.E0));
#18=DIRECTION('',(-1.E0,0.E0,0.E0));
#19=AXIS2_PLACEMENT_3D('',#16,#17,#18);
#21=DIRECTION('',(0.E0,1.E0,0.E0));
#22=VECTOR('',#21,3.E1);
#23=CARTESIAN_POINT('',(3.5E-1,-3.E1,1.228933062944E-14));
#24=LINE('',#23,#22);
#25=DIRECTION('',(0.E0,1.E0,0.E0));
#26=VECTOR('',#25,3.E1);
#27=CARTESIAN_POINT('',(3.5E-1,1.8E1,1.230361817543E-14));
#28=LINE('',#27,#26);
#29=DIRECTION('',(0.E0,1.E0,0.E0));
#30=VECTOR('',#29,3.E1);
#31=CARTESIAN_POINT('',(-3.5E-1,-3.E1,1.220360535350E-14));
#32=LINE('',#31,#30);
#33=DIRECTION('',(0.E0,1.E0,0.E0));
#34=VECTOR('',#33,3.E1);
#35=CARTESIAN_POINT('',(-3.5E-1,1.8E1,1.220360535350E-14));
#36=LINE('',#35,#34);
#37=CARTESIAN_POINT('',(0.E0,-3.E1,1.224646799147E-14));
#38=DIRECTION('',(0.E0,1.E0,0.E0));
#39=DIRECTION('',(1.E0,0.E0,0.E0));
#40=AXIS2_PLACEMENT_3D('',#37,#38,#39);
#42=CARTESIAN_POINT('',(0.E0,-3.E1,1.224646799147E-14));
#43=DIRECTION('',(0.E0,1.E0,0.E0));
#44=DIRECTION('',(-1.E0,0.E0,0.E0));
#45=AXIS2_PLACEMENT_3D('',#42,#43,#44);
#47=CARTESIAN_POINT('',(0.E0,1.8E1,1.224646799147E-14));
#48=DIRECTION('',(0.E0,1.E0,0.E0));
#49=DIRECTION('',(1.E0,0.E0,0.E0));
#50=AXIS2_PLACEMENT_3D('',#47,#48,#49);
#52=CARTESIAN_POINT('',(0.E0,1.8E1,1.224646799147E-14));
#53=DIRECTION('',(0.E0,1.E0,0.E0));
#54=DIRECTION('',(-1.E0,0.E0,0.E0));
#55=AXIS2_PLACEMENT_3D('',#52,#53,#54);
#57=CARTESIAN_POINT('',(0.E0,1.8E1,0.E0));
#58=DIRECTION('',(0.E0,1.E0,0.E0));
#59=DIRECTION('',(-1.E0,0.E0,0.E0));
#60=AXIS2_PLACEMENT_3D('',#57,#58,#59);
#62=CARTESIAN_POINT('',(0.E0,1.8E1,1.224646799147E-14));
#63=DIRECTION('',(0.E0,1.E0,0.E0));
#64=DIRECTION('',(1.E0,0.E0,0.E0));
#65=AXIS2_PLACEMENT_3D('',#62,#63,#64);
#67=DIRECTION('',(-7.071067811865E-1,-7.071067811865E-1,1.026634403157E-11));
#68=VECTOR('',#67,5.515432893372E-1);
#69=CARTESIAN_POINT('',(-2.609999999940E0,1.800000000006E1,
-4.103966891763E-11));
#70=LINE('',#69,#68);
#71=DIRECTION('',(7.071067811865E-1,-7.071067811865E-1,-1.026522926906E-11));
#72=VECTOR('',#71,5.515432893372E-1);
#73=CARTESIAN_POINT('',(2.609999999940E0,1.800000000006E1,4.106357523954E-11));
#74=LINE('',#73,#72);
#75=CARTESIAN_POINT('',(0.E0,1.761E1,1.224646799147E-14));
#76=DIRECTION('',(0.E0,1.E0,0.E0));
#77=DIRECTION('',(1.E0,0.E0,0.E0));
#78=AXIS2_PLACEMENT_3D('',#75,#76,#77);
#80=CARTESIAN_POINT('',(0.E0,3.9E-1,1.224646799147E-14));
#81=DIRECTION('',(0.E0,-1.E0,0.E0));
#82=DIRECTION('',(-1.E0,0.E0,0.E0));
#83=AXIS2_PLACEMENT_3D('',#80,#81,#82);
#85=DIRECTION('',(0.E0,1.E0,0.E0));
#86=VECTOR('',#85,1.722000000010E1);
#87=CARTESIAN_POINT('',(2.999999999948E0,3.899999999483E-1,3.540218998959E-11));
#88=LINE('',#87,#86);
#89=CARTESIAN_POINT('',(0.E0,1.761E1,1.224646799147E-14));
#90=DIRECTION('',(0.E0,1.E0,0.E0));
#91=DIRECTION('',(-1.E0,0.E0,0.E0));
#92=AXIS2_PLACEMENT_3D('',#89,#90,#91);
#94=CARTESIAN_POINT('',(0.E0,3.9E-1,1.224646799147E-14));
#95=DIRECTION('',(0.E0,-1.E0,0.E0));
#96=DIRECTION('',(1.E0,0.E0,0.E0));
#97=AXIS2_PLACEMENT_3D('',#94,#95,#96);
#99=DIRECTION('',(0.E0,1.E0,0.E0));
#100=VECTOR('',#99,1.722000000010E1);
#101=CARTESIAN_POINT('',(-2.999999999948E0,3.899999999483E-1,
-3.537733576099E-11));
#102=LINE('',#101,#100);
#103=DIRECTION('',(7.071067811865E-1,7.071067811865E-1,-1.026392488455E-11));
#104=VECTOR('',#103,5.515432893372E-1);
#105=CARTESIAN_POINT('',(2.609999999940E0,-5.992791448269E-11,
4.106318888193E-11));
#106=LINE('',#105,#104);
#107=DIRECTION('',(-7.071067811865E-1,7.071067811865E-1,1.026704453436E-11));
#108=VECTOR('',#107,5.515432893372E-1);
#109=CARTESIAN_POINT('',(-2.609999999940E0,-5.992776645295E-11,
-4.104005527524E-11));
#110=LINE('',#109,#108);
#111=CARTESIAN_POINT('',(0.E0,4.8E1,1.224646799147E-14));
#112=DIRECTION('',(0.E0,1.E0,0.E0));
#113=DIRECTION('',(1.E0,0.E0,0.E0));
#114=AXIS2_PLACEMENT_3D('',#111,#112,#113);
#116=CARTESIAN_POINT('',(0.E0,4.8E1,1.224646799147E-14));
#117=DIRECTION('',(0.E0,1.E0,0.E0));
#118=DIRECTION('',(-1.E0,0.E0,0.E0));
#119=AXIS2_PLACEMENT_3D('',#116,#117,#118);
#121=CARTESIAN_POINT('',(3.5E-1,-3.E1,1.228933062944E-14));
#122=CARTESIAN_POINT('',(-3.5E-1,-3.E1,1.216074271553E-14));
#123=VERTEX_POINT('',#121);
#124=VERTEX_POINT('',#122);
#125=CARTESIAN_POINT('',(3.5E-1,4.8E1,1.228933062944E-14));
#126=CARTESIAN_POINT('',(-3.5E-1,4.8E1,1.216074271553E-14));
#127=VERTEX_POINT('',#125);
#128=VERTEX_POINT('',#126);
#129=CARTESIAN_POINT('',(3.5E-1,0.E0,1.228933062944E-14));
#130=CARTESIAN_POINT('',(-3.5E-1,0.E0,1.216074271553E-14));
#131=VERTEX_POINT('',#129);
#132=VERTEX_POINT('',#130);
#133=CARTESIAN_POINT('',(3.5E-1,1.8E1,1.228933062944E-14));
#134=CARTESIAN_POINT('',(-3.5E-1,1.8E1,1.216074271553E-14));
#135=VERTEX_POINT('',#133);
#136=VERTEX_POINT('',#134);
#137=CARTESIAN_POINT('',(-2.61E0,1.8E1,1.192683517690E-14));
#138=CARTESIAN_POINT('',(2.61E0,1.8E1,1.260459705489E-14));
#139=VERTEX_POINT('',#137);
#140=VERTEX_POINT('',#138);
#141=CARTESIAN_POINT('',(-3.E0,1.761E1,1.187907395173E-14));
#142=CARTESIAN_POINT('',(3.E0,1.761E1,1.298125607096E-14));
#143=VERTEX_POINT('',#141);
#144=VERTEX_POINT('',#142);
#145=CARTESIAN_POINT('',(2.61E0,0.E0,1.224646799147E-14));
#146=CARTESIAN_POINT('',(-2.61E0,0.E0,1.228496424031E-14));
#147=VERTEX_POINT('',#145);
#148=VERTEX_POINT('',#146);
#149=CARTESIAN_POINT('',(3.E0,3.9E-1,1.298125607096E-14));
#150=CARTESIAN_POINT('',(-3.E0,3.9E-1,1.187907395173E-14));
#151=VERTEX_POINT('',#149);
#152=VERTEX_POINT('',#150);
#153=CARTESIAN_POINT('',(0.E0,0.E0,0.E0));
#154=DIRECTION('',(0.E0,1.E0,0.E0));
#155=DIRECTION('',(1.E0,0.E0,0.E0));
#156=AXIS2_PLACEMENT_3D('',#153,#154,#155);
#157=PLANE('',#156);
#159=ORIENTED_EDGE('',*,*,#158,.F.);
#161=ORIENTED_EDGE('',*,*,#160,.F.);
#162=EDGE_LOOP('',(#159,#161));
#163=FACE_OUTER_BOUND('',#162,.F.);
#165=ORIENTED_EDGE('',*,*,#164,.F.);
#167=ORIENTED_EDGE('',*,*,#166,.F.);
#168=EDGE_LOOP('',(#165,#167));
#169=FACE_BOUND('',#168,.F.);
#171=CARTESIAN_POINT('',(0.E0,-3.E1,1.224646799147E-14));
#172=DIRECTION('',(0.E0,1.E0,0.E0));
#173=DIRECTION('',(1.E0,0.E0,0.E0));
#174=AXIS2_PLACEMENT_3D('',#171,#172,#173);
#175=CYLINDRICAL_SURFACE('',#174,3.5E-1);
#176=ORIENTED_EDGE('',*,*,#164,.T.);
#178=ORIENTED_EDGE('',*,*,#177,.F.);
#180=ORIENTED_EDGE('',*,*,#179,.F.);
#182=ORIENTED_EDGE('',*,*,#181,.T.);
#183=EDGE_LOOP('',(#176,#178,#180,#182));
#184=FACE_OUTER_BOUND('',#183,.F.);
#186=CARTESIAN_POINT('',(0.E0,-3.E1,1.224646799147E-14));
#187=DIRECTION('',(0.E0,1.E0,0.E0));
#188=DIRECTION('',(1.E0,0.E0,0.E0));
#189=AXIS2_PLACEMENT_3D('',#186,#187,#188);
#190=CYLINDRICAL_SURFACE('',#189,3.5E-1);
#192=ORIENTED_EDGE('',*,*,#191,.F.);
#194=ORIENTED_EDGE('',*,*,#193,.T.);
#196=ORIENTED_EDGE('',*,*,#195,.T.);
#198=ORIENTED_EDGE('',*,*,#197,.F.);
#199=EDGE_LOOP('',(#192,#194,#196,#198));
#200=FACE_OUTER_BOUND('',#199,.F.);
#202=CARTESIAN_POINT('',(0.E0,-3.E1,1.224646799147E-14));
#203=DIRECTION('',(0.E0,1.E0,0.E0));
#204=DIRECTION('',(1.E0,0.E0,0.E0));
#205=AXIS2_PLACEMENT_3D('',#202,#203,#204);
#206=CYLINDRICAL_SURFACE('',#205,3.5E-1);
#207=ORIENTED_EDGE('',*,*,#166,.T.);
#208=ORIENTED_EDGE('',*,*,#181,.F.);
#210=ORIENTED_EDGE('',*,*,#209,.F.);
#211=ORIENTED_EDGE('',*,*,#177,.T.);
#212=EDGE_LOOP('',(#207,#208,#210,#211));
#213=FACE_OUTER_BOUND('',#212,.F.);
#215=CARTESIAN_POINT('',(0.E0,-3.E1,1.224646799147E-14));
#216=DIRECTION('',(0.E0,1.E0,0.E0));
#217=DIRECTION('',(1.E0,0.E0,0.E0));
#218=AXIS2_PLACEMENT_3D('',#215,#216,#217);
#219=CYLINDRICAL_SURFACE('',#218,3.5E-1);
#221=ORIENTED_EDGE('',*,*,#220,.F.);
#222=ORIENTED_EDGE('',*,*,#197,.T.);
#224=ORIENTED_EDGE('',*,*,#223,.T.);
#225=ORIENTED_EDGE('',*,*,#193,.F.);
#226=EDGE_LOOP('',(#221,#222,#224,#225));
#227=FACE_OUTER_BOUND('',#226,.F.);
#229=CARTESIAN_POINT('',(0.E0,-3.E1,0.E0));
#230=DIRECTION('',(0.E0,1.E0,0.E0));
#231=DIRECTION('',(1.E0,0.E0,0.E0));
#232=AXIS2_PLACEMENT_3D('',#229,#230,#231);
#233=PLANE('',#232);
#234=ORIENTED_EDGE('',*,*,#179,.T.);
#235=ORIENTED_EDGE('',*,*,#209,.T.);
#236=EDGE_LOOP('',(#234,#235));
#237=FACE_OUTER_BOUND('',#236,.F.);
#239=CARTESIAN_POINT('',(0.E0,1.8E1,0.E0));
#240=DIRECTION('',(0.E0,1.E0,0.E0));
#241=DIRECTION('',(1.E0,0.E0,0.E0));
#242=AXIS2_PLACEMENT_3D('',#239,#240,#241);
#243=PLANE('',#242);
#245=ORIENTED_EDGE('',*,*,#244,.F.);
#247=ORIENTED_EDGE('',*,*,#246,.F.);
#248=EDGE_LOOP('',(#245,#247));
#249=FACE_OUTER_BOUND('',#248,.F.);
#250=ORIENTED_EDGE('',*,*,#191,.T.);
#251=ORIENTED_EDGE('',*,*,#220,.T.);
#252=EDGE_LOOP('',(#250,#251));
#253=FACE_BOUND('',#252,.F.);
#255=CARTESIAN_POINT('',(0.E0,1.780500000006E1,0.E0));
#256=DIRECTION('',(0.E0,-1.E0,0.E0));
#257=DIRECTION('',(0.E0,0.E0,-1.E0));
#258=AXIS2_PLACEMENT_3D('',#255,#256,#257);
#259=CONICAL_SURFACE('',#258,2.804999999944E0,4.5E1);
#260=ORIENTED_EDGE('',*,*,#244,.T.);
#262=ORIENTED_EDGE('',*,*,#261,.T.);
#264=ORIENTED_EDGE('',*,*,#263,.F.);
#266=ORIENTED_EDGE('',*,*,#265,.F.);
#267=EDGE_LOOP('',(#260,#262,#264,#266));
#268=FACE_OUTER_BOUND('',#267,.F.);
#270=CARTESIAN_POINT('',(0.E0,1.780500000006E1,1.224646799147E-14));
#271=DIRECTION('',(0.E0,-1.E0,0.E0));
#272=DIRECTION('',(0.E0,0.E0,-1.E0));
#273=AXIS2_PLACEMENT_3D('',#270,#271,#272);
#274=CONICAL_SURFACE('',#273,2.804999999944E0,4.5E1);
#275=ORIENTED_EDGE('',*,*,#246,.T.);
#276=ORIENTED_EDGE('',*,*,#265,.T.);
#278=ORIENTED_EDGE('',*,*,#277,.F.);
#279=ORIENTED_EDGE('',*,*,#261,.F.);
#280=EDGE_LOOP('',(#275,#276,#278,#279));
#281=FACE_OUTER_BOUND('',#280,.F.);
#283=CARTESIAN_POINT('',(0.E0,0.E0,1.224646799147E-14));
#284=DIRECTION('',(0.E0,1.E0,0.E0));
#285=DIRECTION('',(1.E0,0.E0,0.E0));
#286=AXIS2_PLACEMENT_3D('',#283,#284,#285);
#287=CYLINDRICAL_SURFACE('',#286,3.E0);
#288=ORIENTED_EDGE('',*,*,#277,.T.);
#290=ORIENTED_EDGE('',*,*,#289,.F.);
#292=ORIENTED_EDGE('',*,*,#291,.T.);
#294=ORIENTED_EDGE('',*,*,#293,.T.);
#295=EDGE_LOOP('',(#288,#290,#292,#294));
#296=FACE_OUTER_BOUND('',#295,.F.);
#298=CARTESIAN_POINT('',(0.E0,0.E0,1.224646799147E-14));
#299=DIRECTION('',(0.E0,1.E0,0.E0));
#300=DIRECTION('',(1.E0,0.E0,0.E0));
#301=AXIS2_PLACEMENT_3D('',#298,#299,#300);
#302=CYLINDRICAL_SURFACE('',#301,3.E0);
#303=ORIENTED_EDGE('',*,*,#263,.T.);
#304=ORIENTED_EDGE('',*,*,#293,.F.);
#306=ORIENTED_EDGE('',*,*,#305,.T.);
#307=ORIENTED_EDGE('',*,*,#289,.T.);
#308=EDGE_LOOP('',(#303,#304,#306,#307));
#309=FACE_OUTER_BOUND('',#308,.F.);
#311=CARTESIAN_POINT('',(0.E0,1.949999999441E-1,0.E0));
#312=DIRECTION('',(0.E0,1.E0,0.E0));
#313=DIRECTION('',(0.E0,0.E0,-1.E0));
#314=AXIS2_PLACEMENT_3D('',#311,#312,#313);
#315=CONICAL_SURFACE('',#314,2.804999999944E0,4.5E1);
#316=ORIENTED_EDGE('',*,*,#158,.T.);
#318=ORIENTED_EDGE('',*,*,#317,.T.);
#319=ORIENTED_EDGE('',*,*,#305,.F.);
#321=ORIENTED_EDGE('',*,*,#320,.F.);
#322=EDGE_LOOP('',(#316,#318,#319,#321));
#323=FACE_OUTER_BOUND('',#322,.F.);
#325=CARTESIAN_POINT('',(0.E0,1.949999999441E-1,1.224646799147E-14));
#326=DIRECTION('',(0.E0,1.E0,0.E0));
#327=DIRECTION('',(0.E0,0.E0,-1.E0));
#328=AXIS2_PLACEMENT_3D('',#325,#326,#327);
#329=CONICAL_SURFACE('',#328,2.804999999944E0,4.5E1);
#330=ORIENTED_EDGE('',*,*,#160,.T.);
#331=ORIENTED_EDGE('',*,*,#320,.T.);
#332=ORIENTED_EDGE('',*,*,#291,.F.);
#333=ORIENTED_EDGE('',*,*,#317,.F.);
#334=EDGE_LOOP('',(#330,#331,#332,#333));
#335=FACE_OUTER_BOUND('',#334,.F.);
#337=CARTESIAN_POINT('',(0.E0,4.8E1,0.E0));
#338=DIRECTION('',(0.E0,1.E0,0.E0));
#339=DIRECTION('',(1.E0,0.E0,0.E0));
#340=AXIS2_PLACEMENT_3D('',#337,#338,#339);
#341=PLANE('',#340);
#342=ORIENTED_EDGE('',*,*,#195,.F.);
#343=ORIENTED_EDGE('',*,*,#223,.F.);
#344=EDGE_LOOP('',(#342,#343));
#345=FACE_OUTER_BOUND('',#344,.F.);
#347=CLOSED_SHELL('',(#170,#185,#201,#214,#228,#238,#254,#269,#282,#297,#310,
#324,#336,#346));
#348=MANIFOLD_SOLID_BREP('',#347);
#350=DIMENSIONAL_EXPONENTS(0.E0,0.E0,0.E0,0.E0,0.E0,0.E0,0.E0);
#352=PLANE_ANGLE_MEASURE_WITH_UNIT(PLANE_ANGLE_MEASURE(1.745329251994E-2),#351);
#353=(CONVERSION_BASED_UNIT('DEGREE',#352)NAMED_UNIT(*)PLANE_ANGLE_UNIT());
#355=UNCERTAINTY_MEASURE_WITH_UNIT(LENGTH_MEASURE(3.269049889956E-3),#349,
'closure',
'Maximum model space distance between geometric entities at asserted connectivities');
#358=APPLICATION_CONTEXT(
'CONFIGURATION CONTROLLED 3D DESIGNS OF MECHANICAL PARTS AND ASSEMBLIES');
#359=APPLICATION_PROTOCOL_DEFINITION('international standard',
'config_control_design',1994,#358);
#360=DESIGN_CONTEXT('',#358,'design');
#361=MECHANICAL_CONTEXT('',#358,'mechanical');
#362=PRODUCT('LPA0618-100KL','LPA0618-100KL','NOT SPECIFIED',(#361));
#363=PRODUCT_DEFINITION_FORMATION_WITH_SPECIFIED_SOURCE('3','LAST_VERSION',#362,
.MADE.);
#367=PRODUCT_CATEGORY('part','');
#368=PRODUCT_RELATED_PRODUCT_CATEGORY('detail','',(#362));
#369=PRODUCT_CATEGORY_RELATIONSHIP('','',#367,#368);
#370=SECURITY_CLASSIFICATION_LEVEL('unclassified');
#371=SECURITY_CLASSIFICATION('','',#370);
#372=CC_DESIGN_SECURITY_CLASSIFICATION(#371,(#363));
#373=APPROVAL_STATUS('approved');
#374=APPROVAL(#373,'');
#375=CC_DESIGN_APPROVAL(#374,(#371,#363,#364));
#376=CALENDAR_DATE(112,16,7);
#377=COORDINATED_UNIVERSAL_TIME_OFFSET(7,0,.BEHIND.);
#378=LOCAL_TIME(9,19,2.4E1,#377);
#379=DATE_AND_TIME(#376,#378);
#380=APPROVAL_DATE_TIME(#379,#374);
#381=DATE_TIME_ROLE('creation_date');
#382=CC_DESIGN_DATE_AND_TIME_ASSIGNMENT(#379,#381,(#364));
#383=DATE_TIME_ROLE('classification_date');
#384=CC_DESIGN_DATE_AND_TIME_ASSIGNMENT(#379,#383,(#371));
#385=PERSON('UNSPECIFIED','UNSPECIFIED',$,$,$,$);
#386=ORGANIZATION('UNSPECIFIED','UNSPECIFIED','UNSPECIFIED');
#387=PERSON_AND_ORGANIZATION(#385,#386);
#388=APPROVAL_ROLE('approver');
#389=APPROVAL_PERSON_ORGANIZATION(#387,#374,#388);
#390=PERSON_AND_ORGANIZATION_ROLE('creator');
#391=CC_DESIGN_PERSON_AND_ORGANIZATION_ASSIGNMENT(#387,#390,(#363,#364));
#392=PERSON_AND_ORGANIZATION_ROLE('design_supplier');
#393=CC_DESIGN_PERSON_AND_ORGANIZATION_ASSIGNMENT(#387,#392,(#363));
#394=PERSON_AND_ORGANIZATION_ROLE('classification_officer');
#395=CC_DESIGN_PERSON_AND_ORGANIZATION_ASSIGNMENT(#387,#394,(#371));
#396=PERSON_AND_ORGANIZATION_ROLE('design_owner');
#397=CC_DESIGN_PERSON_AND_ORGANIZATION_ASSIGNMENT(#387,#396,(#362));
#5=CIRCLE('',#4,3.5E-1);
#10=CIRCLE('',#9,3.5E-1);
#15=CIRCLE('',#14,2.61E0);
#20=CIRCLE('',#19,2.61E0);
#41=CIRCLE('',#40,3.5E-1);
#46=CIRCLE('',#45,3.5E-1);
#51=CIRCLE('',#50,3.5E-1);
#56=CIRCLE('',#55,3.5E-1);
#61=CIRCLE('',#60,2.61E0);
#66=CIRCLE('',#65,2.61E0);
#79=CIRCLE('',#78,3.E0);
#84=CIRCLE('',#83,3.E0);
#93=CIRCLE('',#92,3.E0);
#98=CIRCLE('',#97,3.E0);
#115=CIRCLE('',#114,3.5E-1);
#120=CIRCLE('',#119,3.5E-1);
#158=EDGE_CURVE('',#147,#148,#15,.T.);
#160=EDGE_CURVE('',#148,#147,#20,.T.);
#164=EDGE_CURVE('',#131,#132,#5,.T.);
#166=EDGE_CURVE('',#132,#131,#10,.T.);
#170=ADVANCED_FACE('',(#163,#169),#157,.F.);
#177=EDGE_CURVE('',#124,#132,#32,.T.);
#179=EDGE_CURVE('',#123,#124,#41,.T.);
#181=EDGE_CURVE('',#123,#131,#24,.T.);
#185=ADVANCED_FACE('',(#184),#175,.T.);
#191=EDGE_CURVE('',#135,#136,#51,.T.);
#193=EDGE_CURVE('',#135,#127,#28,.T.);
#195=EDGE_CURVE('',#127,#128,#115,.T.);
#197=EDGE_CURVE('',#136,#128,#36,.T.);
#201=ADVANCED_FACE('',(#200),#190,.T.);
#209=EDGE_CURVE('',#124,#123,#46,.T.);
#214=ADVANCED_FACE('',(#213),#206,.T.);
#220=EDGE_CURVE('',#136,#135,#56,.T.);
#223=EDGE_CURVE('',#128,#127,#120,.T.);
#228=ADVANCED_FACE('',(#227),#219,.T.);
#238=ADVANCED_FACE('',(#237),#233,.F.);
#244=EDGE_CURVE('',#139,#140,#61,.T.);
#246=EDGE_CURVE('',#140,#139,#66,.T.);
#254=ADVANCED_FACE('',(#249,#253),#243,.T.);
#261=EDGE_CURVE('',#140,#144,#74,.T.);
#263=EDGE_CURVE('',#143,#144,#93,.T.);
#265=EDGE_CURVE('',#139,#143,#70,.T.);
#269=ADVANCED_FACE('',(#268),#259,.T.);
#277=EDGE_CURVE('',#144,#143,#79,.T.);
#282=ADVANCED_FACE('',(#281),#274,.T.);
#289=EDGE_CURVE('',#152,#143,#102,.T.);
#291=EDGE_CURVE('',#152,#151,#84,.T.);
#293=EDGE_CURVE('',#151,#144,#88,.T.);
#297=ADVANCED_FACE('',(#296),#287,.T.);
#305=EDGE_CURVE('',#151,#152,#98,.T.);
#310=ADVANCED_FACE('',(#309),#302,.T.);
#317=EDGE_CURVE('',#148,#152,#110,.T.);
#320=EDGE_CURVE('',#147,#151,#106,.T.);
#324=ADVANCED_FACE('',(#323),#315,.T.);
#336=ADVANCED_FACE('',(#335),#329,.T.);
#346=ADVANCED_FACE('',(#345),#341,.T.);
#349=(LENGTH_UNIT()NAMED_UNIT(*)SI_UNIT(.MILLI.,.METRE.));
#351=(NAMED_UNIT(*)PLANE_ANGLE_UNIT()SI_UNIT($,.RADIAN.));
#354=(NAMED_UNIT(*)SI_UNIT($,.STERADIAN.)SOLID_ANGLE_UNIT());
#356=(GEOMETRIC_REPRESENTATION_CONTEXT(3)GLOBAL_UNCERTAINTY_ASSIGNED_CONTEXT((
#355))GLOBAL_UNIT_ASSIGNED_CONTEXT((#349,#353,#354))REPRESENTATION_CONTEXT
('ID1','3'));
#357=ADVANCED_BREP_SHAPE_REPRESENTATION('',(#348),#356);
#364=PRODUCT_DEFINITION('design','',#363,#360);
#365=PRODUCT_DEFINITION_SHAPE('','SHAPE FOR LPA0618-100KL.',#364);
#366=SHAPE_DEFINITION_REPRESENTATION(#365,#357);
ENDSEC;
END-ISO-10303-21;
