ISO-10303-21;
HEADER;
FILE_DESCRIPTION((''),'2;1');
FILE_NAME('PM74SB','2012-08-14T',('ryans'),('Bourns, Inc.'),
'PRO/ENGINEER BY PARAMETRIC TECHNOLOGY CORPORATION, 2010100',
'PRO/ENGINEER BY PARAMETRIC TECHNOLOGY CORPORATION, 2010100','');
FILE_SCHEMA(('CONFIG_CONTROL_DESIGN'));
ENDSEC;
DATA;
#1=CARTESIAN_POINT('',(0.E0,0.E0,0.E0));
#2=DIRECTION('',(0.E0,1.E0,0.E0));
#3=DIRECTION('',(8.974358974359E-1,0.E0,-4.411448854894E-1));
#4=AXIS2_PLACEMENT_3D('',#1,#2,#3);
#6=DIRECTION('',(0.E0,0.E0,1.E0));
#7=VECTOR('',#6,3.440930106817E0);
#8=CARTESIAN_POINT('',(-3.5E0,0.E0,-1.720465053409E0));
#9=LINE('',#8,#7);
#10=CARTESIAN_POINT('',(0.E0,0.E0,0.E0));
#11=DIRECTION('',(0.E0,1.E0,0.E0));
#12=DIRECTION('',(-8.974358974359E-1,0.E0,4.411448854894E-1));
#13=AXIS2_PLACEMENT_3D('',#10,#11,#12);
#15=DIRECTION('',(0.E0,0.E0,-1.E0));
#16=VECTOR('',#15,3.440930106817E0);
#17=CARTESIAN_POINT('',(3.5E0,0.E0,1.720465053409E0));
#18=LINE('',#17,#16);
#19=DIRECTION('',(0.E0,1.E0,0.E0));
#20=VECTOR('',#19,4.5E0);
#21=CARTESIAN_POINT('',(3.5E0,0.E0,-1.720465053409E0));
#22=LINE('',#21,#20);
#23=DIRECTION('',(0.E0,-3.538557743777E-1,9.353000005023E-1));
#24=VECTOR('',#23,1.122634448237E0);
#25=CARTESIAN_POINT('',(3.5E0,4.5E0,-1.05E0));
#26=LINE('',#25,#24);
#27=DIRECTION('',(0.E0,1.E0,0.E0));
#28=VECTOR('',#27,4.5E0);
#29=CARTESIAN_POINT('',(3.5E0,0.E0,1.720465053409E0));
#30=LINE('',#29,#28);
#31=DIRECTION('',(0.E0,3.538557743777E-1,9.353000005023E-1));
#32=VECTOR('',#31,1.122634448237E0);
#33=CARTESIAN_POINT('',(3.5E0,4.102749317976E0,0.E0));
#34=LINE('',#33,#32);
#35=DIRECTION('',(1.E0,0.E0,0.E0));
#36=VECTOR('',#35,7.E0);
#37=CARTESIAN_POINT('',(-3.5E0,4.5E0,-1.05E0));
#38=LINE('',#37,#36);
#39=DIRECTION('',(0.E0,0.E0,1.E0));
#40=VECTOR('',#39,6.704650534085E-1);
#41=CARTESIAN_POINT('',(-3.5E0,4.5E0,-1.720465053409E0));
#42=LINE('',#41,#40);
#43=CARTESIAN_POINT('',(0.E0,4.5E0,0.E0));
#44=DIRECTION('',(0.E0,1.E0,0.E0));
#45=DIRECTION('',(8.974358974359E-1,0.E0,-4.411448854894E-1));
#46=AXIS2_PLACEMENT_3D('',#43,#44,#45);
#48=DIRECTION('',(0.E0,0.E0,-1.E0));
#49=VECTOR('',#48,6.704650534085E-1);
#50=CARTESIAN_POINT('',(3.5E0,4.5E0,-1.05E0));
#51=LINE('',#50,#49);
#52=DIRECTION('',(1.E0,0.E0,0.E0));
#53=VECTOR('',#52,7.E0);
#54=CARTESIAN_POINT('',(-3.5E0,4.5E0,1.05E0));
#55=LINE('',#54,#53);
#56=DIRECTION('',(0.E0,0.E0,-1.E0));
#57=VECTOR('',#56,6.704650534085E-1);
#58=CARTESIAN_POINT('',(3.5E0,4.5E0,1.720465053409E0));
#59=LINE('',#58,#57);
#60=CARTESIAN_POINT('',(0.E0,4.5E0,0.E0));
#61=DIRECTION('',(0.E0,1.E0,0.E0));
#62=DIRECTION('',(-8.974358974359E-1,0.E0,4.411448854894E-1));
#63=AXIS2_PLACEMENT_3D('',#60,#61,#62);
#65=DIRECTION('',(0.E0,0.E0,1.E0));
#66=VECTOR('',#65,6.704650534085E-1);
#67=CARTESIAN_POINT('',(-3.5E0,4.5E0,1.05E0));
#68=LINE('',#67,#66);
#69=DIRECTION('',(0.E0,-3.538557743777E-1,9.353000005023E-1));
#70=VECTOR('',#69,1.122634448237E0);
#71=CARTESIAN_POINT('',(-3.5E0,4.5E0,-1.05E0));
#72=LINE('',#71,#70);
#73=DIRECTION('',(0.E0,3.538557743777E-1,9.353000005023E-1));
#74=VECTOR('',#73,1.122634448237E0);
#75=CARTESIAN_POINT('',(-3.5E0,4.102749317976E0,0.E0));
#76=LINE('',#75,#74);
#77=DIRECTION('',(0.E0,1.E0,0.E0));
#78=VECTOR('',#77,4.5E0);
#79=CARTESIAN_POINT('',(-3.5E0,0.E0,-1.720465053409E0));
#80=LINE('',#79,#78);
#81=DIRECTION('',(1.E0,0.E0,0.E0));
#82=VECTOR('',#81,7.E0);
#83=CARTESIAN_POINT('',(-3.5E0,4.102749317976E0,0.E0));
#84=LINE('',#83,#82);
#85=DIRECTION('',(0.E0,1.E0,0.E0));
#86=VECTOR('',#85,4.5E0);
#87=CARTESIAN_POINT('',(-3.5E0,0.E0,1.720465053409E0));
#88=LINE('',#87,#86);
#89=CARTESIAN_POINT('',(3.5E0,0.E0,-1.720465053409E0));
#90=CARTESIAN_POINT('',(-3.5E0,0.E0,-1.720465053409E0));
#91=VERTEX_POINT('',#89);
#92=VERTEX_POINT('',#90);
#93=CARTESIAN_POINT('',(-3.5E0,0.E0,1.720465053409E0));
#94=VERTEX_POINT('',#93);
#95=CARTESIAN_POINT('',(3.5E0,0.E0,1.720465053409E0));
#96=VERTEX_POINT('',#95);
#97=CARTESIAN_POINT('',(3.5E0,4.5E0,-1.720465053409E0));
#98=CARTESIAN_POINT('',(-3.5E0,4.5E0,-1.720465053409E0));
#99=VERTEX_POINT('',#97);
#100=VERTEX_POINT('',#98);
#101=CARTESIAN_POINT('',(-3.5E0,4.5E0,1.720465053409E0));
#102=CARTESIAN_POINT('',(3.5E0,4.5E0,1.720465053409E0));
#103=VERTEX_POINT('',#101);
#104=VERTEX_POINT('',#102);
#105=CARTESIAN_POINT('',(-3.5E0,4.5E0,-1.05E0));
#106=CARTESIAN_POINT('',(3.5E0,4.5E0,-1.05E0));
#107=VERTEX_POINT('',#105);
#108=VERTEX_POINT('',#106);
#109=CARTESIAN_POINT('',(-3.5E0,4.5E0,1.05E0));
#110=CARTESIAN_POINT('',(3.5E0,4.5E0,1.05E0));
#111=VERTEX_POINT('',#109);
#112=VERTEX_POINT('',#110);
#113=CARTESIAN_POINT('',(-3.5E0,4.102749317976E0,0.E0));
#114=VERTEX_POINT('',#113);
#115=CARTESIAN_POINT('',(3.5E0,4.102749317976E0,0.E0));
#116=VERTEX_POINT('',#115);
#117=CARTESIAN_POINT('',(0.E0,0.E0,0.E0));
#118=DIRECTION('',(0.E0,1.E0,0.E0));
#119=DIRECTION('',(1.E0,0.E0,0.E0));
#120=AXIS2_PLACEMENT_3D('',#117,#118,#119);
#121=PLANE('',#120);
#123=ORIENTED_EDGE('',*,*,#122,.T.);
#125=ORIENTED_EDGE('',*,*,#124,.T.);
#127=ORIENTED_EDGE('',*,*,#126,.T.);
#129=ORIENTED_EDGE('',*,*,#128,.T.);
#130=EDGE_LOOP('',(#123,#125,#127,#129));
#131=FACE_OUTER_BOUND('',#130,.F.);
#133=CARTESIAN_POINT('',(0.E0,0.E0,0.E0));
#134=DIRECTION('',(0.E0,1.E0,0.E0));
#135=DIRECTION('',(1.E0,0.E0,0.E0));
#136=AXIS2_PLACEMENT_3D('',#133,#134,#135);
#137=CYLINDRICAL_SURFACE('',#136,3.9E0);
#138=ORIENTED_EDGE('',*,*,#122,.F.);
#140=ORIENTED_EDGE('',*,*,#139,.T.);
#142=ORIENTED_EDGE('',*,*,#141,.T.);
#144=ORIENTED_EDGE('',*,*,#143,.F.);
#145=EDGE_LOOP('',(#138,#140,#142,#144));
#146=FACE_OUTER_BOUND('',#145,.F.);
#148=CARTESIAN_POINT('',(3.5E0,0.E0,1.720465053409E0));
#149=DIRECTION('',(1.E0,0.E0,0.E0));
#150=DIRECTION('',(0.E0,0.E0,-1.E0));
#151=AXIS2_PLACEMENT_3D('',#148,#149,#150);
#152=PLANE('',#151);
#154=ORIENTED_EDGE('',*,*,#153,.F.);
#156=ORIENTED_EDGE('',*,*,#155,.T.);
#157=ORIENTED_EDGE('',*,*,#139,.F.);
#158=ORIENTED_EDGE('',*,*,#128,.F.);
#160=ORIENTED_EDGE('',*,*,#159,.T.);
#162=ORIENTED_EDGE('',*,*,#161,.T.);
#164=ORIENTED_EDGE('',*,*,#163,.F.);
#165=EDGE_LOOP('',(#154,#156,#157,#158,#160,#162,#164));
#166=FACE_OUTER_BOUND('',#165,.F.);
#168=CARTESIAN_POINT('',(-3.5E0,4.5E0,-1.05E0));
#169=DIRECTION('',(0.E0,-9.353000005023E-1,-3.538557743777E-1));
#170=DIRECTION('',(0.E0,-3.538557743777E-1,9.353000005023E-1));
#171=AXIS2_PLACEMENT_3D('',#168,#169,#170);
#172=PLANE('',#171);
#174=ORIENTED_EDGE('',*,*,#173,.T.);
#175=ORIENTED_EDGE('',*,*,#153,.T.);
#177=ORIENTED_EDGE('',*,*,#176,.F.);
#179=ORIENTED_EDGE('',*,*,#178,.F.);
#180=EDGE_LOOP('',(#174,#175,#177,#179));
#181=FACE_OUTER_BOUND('',#180,.F.);
#183=CARTESIAN_POINT('',(0.E0,4.5E0,0.E0));
#184=DIRECTION('',(0.E0,1.E0,0.E0));
#185=DIRECTION('',(1.E0,0.E0,0.E0));
#186=AXIS2_PLACEMENT_3D('',#183,#184,#185);
#187=PLANE('',#186);
#188=ORIENTED_EDGE('',*,*,#173,.F.);
#190=ORIENTED_EDGE('',*,*,#189,.F.);
#191=ORIENTED_EDGE('',*,*,#141,.F.);
#192=ORIENTED_EDGE('',*,*,#155,.F.);
#193=EDGE_LOOP('',(#188,#190,#191,#192));
#194=FACE_OUTER_BOUND('',#193,.F.);
#196=CARTESIAN_POINT('',(0.E0,4.5E0,0.E0));
#197=DIRECTION('',(0.E0,1.E0,0.E0));
#198=DIRECTION('',(1.E0,0.E0,0.E0));
#199=AXIS2_PLACEMENT_3D('',#196,#197,#198);
#200=PLANE('',#199);
#202=ORIENTED_EDGE('',*,*,#201,.T.);
#203=ORIENTED_EDGE('',*,*,#161,.F.);
#205=ORIENTED_EDGE('',*,*,#204,.F.);
#207=ORIENTED_EDGE('',*,*,#206,.F.);
#208=EDGE_LOOP('',(#202,#203,#205,#207));
#209=FACE_OUTER_BOUND('',#208,.F.);
#211=CARTESIAN_POINT('',(-3.5E0,0.E0,-1.720465053409E0));
#212=DIRECTION('',(-1.E0,0.E0,0.E0));
#213=DIRECTION('',(0.E0,0.E0,1.E0));
#214=AXIS2_PLACEMENT_3D('',#211,#212,#213);
#215=PLANE('',#214);
#216=ORIENTED_EDGE('',*,*,#178,.T.);
#218=ORIENTED_EDGE('',*,*,#217,.T.);
#219=ORIENTED_EDGE('',*,*,#206,.T.);
#221=ORIENTED_EDGE('',*,*,#220,.F.);
#222=ORIENTED_EDGE('',*,*,#124,.F.);
#223=ORIENTED_EDGE('',*,*,#143,.T.);
#224=ORIENTED_EDGE('',*,*,#189,.T.);
#225=EDGE_LOOP('',(#216,#218,#219,#221,#222,#223,#224));
#226=FACE_OUTER_BOUND('',#225,.F.);
#228=CARTESIAN_POINT('',(-3.5E0,4.102749317976E0,0.E0));
#229=DIRECTION('',(0.E0,-9.353000005023E-1,3.538557743777E-1));
#230=DIRECTION('',(0.E0,3.538557743777E-1,9.353000005023E-1));
#231=AXIS2_PLACEMENT_3D('',#228,#229,#230);
#232=PLANE('',#231);
#233=ORIENTED_EDGE('',*,*,#201,.F.);
#234=ORIENTED_EDGE('',*,*,#217,.F.);
#235=ORIENTED_EDGE('',*,*,#176,.T.);
#236=ORIENTED_EDGE('',*,*,#163,.T.);
#237=EDGE_LOOP('',(#233,#234,#235,#236));
#238=FACE_OUTER_BOUND('',#237,.F.);
#240=CARTESIAN_POINT('',(0.E0,0.E0,0.E0));
#241=DIRECTION('',(0.E0,1.E0,0.E0));
#242=DIRECTION('',(1.E0,0.E0,0.E0));
#243=AXIS2_PLACEMENT_3D('',#240,#241,#242);
#244=CYLINDRICAL_SURFACE('',#243,3.9E0);
#245=ORIENTED_EDGE('',*,*,#126,.F.);
#246=ORIENTED_EDGE('',*,*,#220,.T.);
#247=ORIENTED_EDGE('',*,*,#204,.T.);
#248=ORIENTED_EDGE('',*,*,#159,.F.);
#249=EDGE_LOOP('',(#245,#246,#247,#248));
#250=FACE_OUTER_BOUND('',#249,.F.);
#252=CLOSED_SHELL('',(#132,#147,#167,#182,#195,#210,#227,#239,#251));
#253=MANIFOLD_SOLID_BREP('',#252);
#255=DIMENSIONAL_EXPONENTS(0.E0,0.E0,0.E0,0.E0,0.E0,0.E0,0.E0);
#257=PLANE_ANGLE_MEASURE_WITH_UNIT(PLANE_ANGLE_MEASURE(1.745329251994E-2),#256);
#258=(CONVERSION_BASED_UNIT('DEGREE',#257)NAMED_UNIT(*)PLANE_ANGLE_UNIT());
#260=UNCERTAINTY_MEASURE_WITH_UNIT(LENGTH_MEASURE(4.752185042170E-4),#254,
'closure',
'Maximum model space distance between geometric entities at asserted connectivities');
#263=APPLICATION_CONTEXT(
'CONFIGURATION CONTROLLED 3D DESIGNS OF MECHANICAL PARTS AND ASSEMBLIES');
#264=APPLICATION_PROTOCOL_DEFINITION('international standard',
'config_control_design',1994,#263);
#265=DESIGN_CONTEXT('',#263,'design');
#266=MECHANICAL_CONTEXT('',#263,'mechanical');
#267=PRODUCT('PM74SB','PM74SB','NOT SPECIFIED',(#266));
#268=PRODUCT_DEFINITION_FORMATION_WITH_SPECIFIED_SOURCE('1','LAST_VERSION',#267,
.MADE.);
#272=PRODUCT_CATEGORY('part','');
#273=PRODUCT_RELATED_PRODUCT_CATEGORY('detail','',(#267));
#274=PRODUCT_CATEGORY_RELATIONSHIP('','',#272,#273);
#275=SECURITY_CLASSIFICATION_LEVEL('unclassified');
#276=SECURITY_CLASSIFICATION('','',#275);
#277=CC_DESIGN_SECURITY_CLASSIFICATION(#276,(#268));
#278=APPROVAL_STATUS('approved');
#279=APPROVAL(#278,'');
#280=CC_DESIGN_APPROVAL(#279,(#276,#268,#269));
#281=CALENDAR_DATE(112,14,8);
#282=COORDINATED_UNIVERSAL_TIME_OFFSET(7,0,.BEHIND.);
#283=LOCAL_TIME(16,22,4.9E1,#282);
#284=DATE_AND_TIME(#281,#283);
#285=APPROVAL_DATE_TIME(#284,#279);
#286=DATE_TIME_ROLE('creation_date');
#287=CC_DESIGN_DATE_AND_TIME_ASSIGNMENT(#284,#286,(#269));
#288=DATE_TIME_ROLE('classification_date');
#289=CC_DESIGN_DATE_AND_TIME_ASSIGNMENT(#284,#288,(#276));
#290=PERSON('UNSPECIFIED','UNSPECIFIED',$,$,$,$);
#291=ORGANIZATION('UNSPECIFIED','UNSPECIFIED','UNSPECIFIED');
#292=PERSON_AND_ORGANIZATION(#290,#291);
#293=APPROVAL_ROLE('approver');
#294=APPROVAL_PERSON_ORGANIZATION(#292,#279,#293);
#295=PERSON_AND_ORGANIZATION_ROLE('creator');
#296=CC_DESIGN_PERSON_AND_ORGANIZATION_ASSIGNMENT(#292,#295,(#268,#269));
#297=PERSON_AND_ORGANIZATION_ROLE('design_supplier');
#298=CC_DESIGN_PERSON_AND_ORGANIZATION_ASSIGNMENT(#292,#297,(#268));
#299=PERSON_AND_ORGANIZATION_ROLE('classification_officer');
#300=CC_DESIGN_PERSON_AND_ORGANIZATION_ASSIGNMENT(#292,#299,(#276));
#301=PERSON_AND_ORGANIZATION_ROLE('design_owner');
#302=CC_DESIGN_PERSON_AND_ORGANIZATION_ASSIGNMENT(#292,#301,(#267));
#5=CIRCLE('',#4,3.9E0);
#14=CIRCLE('',#13,3.9E0);
#47=CIRCLE('',#46,3.9E0);
#64=CIRCLE('',#63,3.9E0);
#122=EDGE_CURVE('',#91,#92,#5,.T.);
#124=EDGE_CURVE('',#92,#94,#9,.T.);
#126=EDGE_CURVE('',#94,#96,#14,.T.);
#128=EDGE_CURVE('',#96,#91,#18,.T.);
#132=ADVANCED_FACE('',(#131),#121,.F.);
#139=EDGE_CURVE('',#91,#99,#22,.T.);
#141=EDGE_CURVE('',#99,#100,#47,.T.);
#143=EDGE_CURVE('',#92,#100,#80,.T.);
#147=ADVANCED_FACE('',(#146),#137,.T.);
#153=EDGE_CURVE('',#108,#116,#26,.T.);
#155=EDGE_CURVE('',#108,#99,#51,.T.);
#159=EDGE_CURVE('',#96,#104,#30,.T.);
#161=EDGE_CURVE('',#104,#112,#59,.T.);
#163=EDGE_CURVE('',#116,#112,#34,.T.);
#167=ADVANCED_FACE('',(#166),#152,.T.);
#173=EDGE_CURVE('',#107,#108,#38,.T.);
#176=EDGE_CURVE('',#114,#116,#84,.T.);
#178=EDGE_CURVE('',#107,#114,#72,.T.);
#182=ADVANCED_FACE('',(#181),#172,.F.);
#189=EDGE_CURVE('',#100,#107,#42,.T.);
#195=ADVANCED_FACE('',(#194),#187,.T.);
#201=EDGE_CURVE('',#111,#112,#55,.T.);
#204=EDGE_CURVE('',#103,#104,#64,.T.);
#206=EDGE_CURVE('',#111,#103,#68,.T.);
#210=ADVANCED_FACE('',(#209),#200,.T.);
#217=EDGE_CURVE('',#114,#111,#76,.T.);
#220=EDGE_CURVE('',#94,#103,#88,.T.);
#227=ADVANCED_FACE('',(#226),#215,.T.);
#239=ADVANCED_FACE('',(#238),#232,.F.);
#251=ADVANCED_FACE('',(#250),#244,.T.);
#254=(LENGTH_UNIT()NAMED_UNIT(*)SI_UNIT(.MILLI.,.METRE.));
#256=(NAMED_UNIT(*)PLANE_ANGLE_UNIT()SI_UNIT($,.RADIAN.));
#259=(NAMED_UNIT(*)SI_UNIT($,.STERADIAN.)SOLID_ANGLE_UNIT());
#261=(GEOMETRIC_REPRESENTATION_CONTEXT(3)GLOBAL_UNCERTAINTY_ASSIGNED_CONTEXT((
#260))GLOBAL_UNIT_ASSIGNED_CONTEXT((#254,#258,#259))REPRESENTATION_CONTEXT
('ID1','3'));
#262=ADVANCED_BREP_SHAPE_REPRESENTATION('',(#253),#261);
#269=PRODUCT_DEFINITION('design','',#268,#265);
#270=PRODUCT_DEFINITION_SHAPE('','SHAPE FOR PM74SB.',#269);
#271=SHAPE_DEFINITION_REPRESENTATION(#270,#262);
ENDSEC;
END-ISO-10303-21;
